  0
SECTION
  2
HEADER
  9
$ACADVER
  1
AC1032
  9
$ACADMAINTVER
 90
      229
  9
$DWGCODEPAGE
  3
ANSI_1252
  9
$REQUIREDVERSIONS
160
                 0
  9
$INSBASE
 10
0.0
 20
0.0
 30
0.0
  9
$EXTMIN
 10
-6923.818728580406
 20
-9023.201414709971
 30
0.0
  9
$EXTMAX
 10
106459.4061600404
 20
93710.50067470404
 30
0.0
  9
$LIMMIN
 10
0.0
 20
0.0
  9
$LIMMAX
 10
420.0
 20
297.0
  9
$ORTHOMODE
 70
     0
  9
$REGENMODE
 70
     1
  9
$FILLMODE
 70
     1
  9
$QTEXTMODE
 70
     0
  9
$MIRRTEXT
 70
     0
  9
$LTSCALE
 40
1.0
  9
$ATTMODE
 70
     1
  9
$TEXTSIZE
 40
2.5
  9
$TRACEWID
 40
1.0
  9
$TEXTSTYLE
  7
Standard
  9
$CLAYER
  8
0
  9
$CELTYPE
  6
Continuous
  9
$CECOLOR
 62
   256
  9
$CELTSCALE
 40
1.0
  9
$DISPSILH
 70
     0
  9
$DIMSCALE
 40
1.0
  9
$DIMASZ
 40
2.5
  9
$DIMEXO
 40
0.625
  9
$DIMDLI
 40
3.75
  9
$DIMRND
 40
0.0
  9
$DIMDLE
 40
0.0
  9
$DIMEXE
 40
1.25
  9
$DIMTP
 40
0.0
  9
$DIMTM
 40
0.0
  9
$DIMTXT
 40
2.5
  9
$DIMCEN
 40
2.5
  9
$DIMTSZ
 40
0.0
  9
$DIMTOL
 70
     0
  9
$DIMLIM
 70
     0
  9
$DIMTIH
 70
     0
  9
$DIMTOH
 70
     0
  9
$DIMSE1
 70
     0
  9
$DIMSE2
 70
     0
  9
$DIMTAD
 70
     1
  9
$DIMZIN
 70
     8
  9
$DIMBLK
  1

  9
$DIMASO
 70
     1
  9
$DIMSHO
 70
     1
  9
$DIMPOST
  1

  9
$DIMAPOST
  1

  9
$DIMALT
 70
     0
  9
$DIMALTD
 70
     3
  9
$DIMALTF
 40
0.03937007874016
  9
$DIMLFAC
 40
1.0
  9
$DIMTOFL
 70
     1
  9
$DIMTVP
 40
0.0
  9
$DIMTIX
 70
     0
  9
$DIMSOXD
 70
     0
  9
$DIMSAH
 70
     0
  9
$DIMBLK1
  1

  9
$DIMBLK2
  1

  9
$DIMSTYLE
  2
ISO-25
  9
$DIMCLRD
 70
     0
  9
$DIMCLRE
 70
     0
  9
$DIMCLRT
 70
     0
  9
$DIMTFAC
 40
1.0
  9
$DIMGAP
 40
0.625
  9
$DIMJUST
 70
     0
  9
$DIMSD1
 70
     0
  9
$DIMSD2
 70
     0
  9
$DIMTOLJ
 70
     0
  9
$DIMTZIN
 70
     8
  9
$DIMALTZ
 70
     0
  9
$DIMALTTZ
 70
     0
  9
$DIMUPT
 70
     0
  9
$DIMDEC
 70
     2
  9
$DIMTDEC
 70
     2
  9
$DIMALTU
 70
     2
  9
$DIMALTTD
 70
     3
  9
$DIMTXSTY
  7
Standard
  9
$DIMAUNIT
 70
     0
  9
$DIMADEC
 70
     0
  9
$DIMALTRND
 40
0.0
  9
$DIMAZIN
 70
     0
  9
$DIMDSEP
 70
    44
  9
$DIMATFIT
 70
     3
  9
$DIMFRAC
 70
     0
  9
$DIMLDRBLK
  1

  9
$DIMLUNIT
 70
     2
  9
$DIMLWD
 70
    -2
  9
$DIMLWE
 70
    -2
  9
$DIMTMOVE
 70
     0
  9
$DIMFXL
 40
1.0
  9
$DIMFXLON
 70
     0
  9
$DIMJOGANG
 40
0.7853981633974483
  9
$DIMTFILL
 70
     0
  9
$DIMTFILLCLR
 70
     0
  9
$DIMARCSYM
 70
     0
  9
$DIMLTYPE
  6

  9
$DIMLTEX1
  6

  9
$DIMLTEX2
  6

  9
$DIMTXTDIRECTION
 70
     0
  9
$LUNITS
 70
     2
  9
$LUPREC
 70
     4
  9
$SKETCHINC
 40
1.0
  9
$FILLETRAD
 40
0.0
  9
$AUNITS
 70
     0
  9
$AUPREC
 70
     0
  9
$MENU
  1
.
  9
$ELEVATION
 40
0.0
  9
$PELEVATION
 40
0.0
  9
$THICKNESS
 40
0.0
  9
$LIMCHECK
 70
     0
  9
$CHAMFERA
 40
0.0
  9
$CHAMFERB
 40
0.0
  9
$CHAMFERC
 40
0.0
  9
$CHAMFERD
 40
0.0
  9
$SKPOLY
 70
     0
  9
$TDCREATE
 40
2459748.677916667
  9
$TDUCREATE
 40
2459748.177916667
  9
$TDUPDATE
 40
2459748.680057870
  9
$TDUUPDATE
 40
2459748.180057870
  9
$TDINDWG
 40
0.0031944444
  9
$TDUSRTIMER
 40
0.0031944444
  9
$USRTIMER
 70
     1
  9
$ANGBASE
 50
0.0
  9
$ANGDIR
 70
     0
  9
$PDMODE
 70
     0
  9
$PDSIZE
 40
0.0
  9
$PLINEWID
 40
0.0
  9
$SPLFRAME
 70
     0
  9
$SPLINETYPE
 70
     6
  9
$SPLINESEGS
 70
     8
  9
$HANDSEED
  5
417
  9
$SURFTAB1
 70
     6
  9
$SURFTAB2
 70
     6
  9
$SURFTYPE
 70
     6
  9
$SURFU
 70
     6
  9
$SURFV
 70
     6
  9
$UCSBASE
  2

  9
$UCSNAME
  2

  9
$UCSORG
 10
0.0
 20
0.0
 30
0.0
  9
$UCSXDIR
 10
1.0
 20
0.0
 30
0.0
  9
$UCSYDIR
 10
0.0
 20
1.0
 30
0.0
  9
$UCSORTHOREF
  2

  9
$UCSORTHOVIEW
 70
     0
  9
$UCSORGTOP
 10
0.0
 20
0.0
 30
0.0
  9
$UCSORGBOTTOM
 10
0.0
 20
0.0
 30
0.0
  9
$UCSORGLEFT
 10
0.0
 20
0.0
 30
0.0
  9
$UCSORGRIGHT
 10
0.0
 20
0.0
 30
0.0
  9
$UCSORGFRONT
 10
0.0
 20
0.0
 30
0.0
  9
$UCSORGBACK
 10
0.0
 20
0.0
 30
0.0
  9
$PUCSBASE
  2

  9
$PUCSNAME
  2

  9
$PUCSORG
 10
0.0
 20
0.0
 30
0.0
  9
$PUCSXDIR
 10
1.0
 20
0.0
 30
0.0
  9
$PUCSYDIR
 10
0.0
 20
1.0
 30
0.0
  9
$PUCSORTHOREF
  2

  9
$PUCSORTHOVIEW
 70
     0
  9
$PUCSORGTOP
 10
0.0
 20
0.0
 30
0.0
  9
$PUCSORGBOTTOM
 10
0.0
 20
0.0
 30
0.0
  9
$PUCSORGLEFT
 10
0.0
 20
0.0
 30
0.0
  9
$PUCSORGRIGHT
 10
0.0
 20
0.0
 30
0.0
  9
$PUCSORGFRONT
 10
0.0
 20
0.0
 30
0.0
  9
$PUCSORGBACK
 10
0.0
 20
0.0
 30
0.0
  9
$USERI1
 70
     0
  9
$USERI2
 70
     0
  9
$USERI3
 70
     0
  9
$USERI4
 70
     0
  9
$USERI5
 70
     0
  9
$USERR1
 40
0.0
  9
$USERR2
 40
0.0
  9
$USERR3
 40
0.0
  9
$USERR4
 40
0.0
  9
$USERR5
 40
0.0
  9
$WORLDVIEW
 70
     1
  9
$SHADEDGE
 70
     3
  9
$SHADEDIF
 70
    70
  9
$TILEMODE
 70
     1
  9
$MAXACTVP
 70
    64
  9
$PINSBASE
 10
0.0
 20
0.0
 30
0.0
  9
$PLIMCHECK
 70
     0
  9
$PEXTMIN
 10
0.0010420625153245
 20
0.0014770624390508
 30
0.0
  9
$PEXTMAX
 10
208.4114610011634
 20
295.4110107424506
 30
0.0
  9
$PLIMMIN
 10
-0.7937499880790711
 20
-0.7937499880790711
  9
$PLIMMAX
 10
209.2062500119209
 20
296.2062500119209
  9
$UNITMODE
 70
     0
  9
$VISRETAIN
 70
     1
  9
$PLINEGEN
 70
     0
  9
$PSLTSCALE
 70
     1
  9
$TREEDEPTH
 70
  3020
  9
$CMLSTYLE
  2
Standard
  9
$CMLJUST
 70
     0
  9
$CMLSCALE
 40
20.0
  9
$PROXYGRAPHICS
 70
     1
  9
$MEASUREMENT
 70
     1
  9
$CELWEIGHT
370
    -1
  9
$ENDCAPS
280
     0
  9
$JOINSTYLE
280
     0
  9
$LWDISPLAY
290
     0
  9
$INSUNITS
 70
     4
  9
$HYPERLINKBASE
  1

  9
$STYLESHEET
  1

  9
$XEDIT
290
     1
  9
$CEPSNTYPE
380
     0
  9
$PSTYLEMODE
290
     1
  9
$FINGERPRINTGUID
  2
{BA45627D-5370-104D-9DAB-95F895202292}
  9
$VERSIONGUID
  2
{33072BFC-5538-C043-AC64-CD5918ACB046}
  9
$EXTNAMES
290
     1
  9
$PSVPSCALE
 40
0.0
  9
$OLESTARTUP
290
     0
  9
$SORTENTS
280
   127
  9
$INDEXCTL
280
     0
  9
$HIDETEXT
280
     1
  9
$XCLIPFRAME
280
     2
  9
$HALOGAP
280
     0
  9
$OBSCOLOR
 70
   257
  9
$OBSLTYPE
280
     0
  9
$INTERSECTIONDISPLAY
280
     0
  9
$INTERSECTIONCOLOR
 70
   257
  9
$DIMASSOC
280
     2
  9
$PROJECTNAME
  1

  9
$CAMERADISPLAY
290
     0
  9
$LENSLENGTH
 40
50.0
  9
$CAMERAHEIGHT
 40
0.0
  9
$STEPSPERSEC
 40
2.0
  9
$STEPSIZE
 40
6.0
  9
$3DDWFPREC
 40
2.0
  9
$PSOLWIDTH
 40
5.0
  9
$PSOLHEIGHT
 40
80.0
  9
$LOFTANG1
 40
1.570796326794896
  9
$LOFTANG2
 40
1.570796326794896
  9
$LOFTMAG1
 40
0.0
  9
$LOFTMAG2
 40
0.0
  9
$LOFTPARAM
 70
     7
  9
$LOFTNORMALS
280
     1
  9
$LATITUDE
 40
37.795
  9
$LONGITUDE
 40
-122.394
  9
$NORTHDIRECTION
 40
0.0
  9
$TIMEZONE
 70
 -8000
  9
$LIGHTGLYPHDISPLAY
280
     1
  9
$TILEMODELIGHTSYNCH
280
     1
  9
$CMATERIAL
347
38
  9
$SOLIDHIST
280
     0
  9
$SHOWHIST
280
     1
  9
$DWFFRAME
280
     2
  9
$DGNFRAME
280
     0
  9
$REALWORLDSCALE
290
     1
  9
$INTERFERECOLOR
 62
     1
  9
$INTERFEREOBJVS
345
50
  9
$INTERFEREVPVS
346
51
  9
$CSHADOW
280
     0
  9
$SHADOWPLANELOCATION
 40
0.0
  0
ENDSEC
  0
SECTION
  2
CLASSES
  0
CLASS
  1
ACDBDICTIONARYWDFLT
  2
AcDbDictionaryWithDefault
  3
ObjectDBX Classes
 90
        0
 91
        1
280
     0
281
     0
  0
CLASS
  1
DICTIONARYVAR
  2
AcDbDictionaryVar
  3
ObjectDBX Classes
 90
        0
 91
       10
280
     0
281
     0
  0
CLASS
  1
TABLESTYLE
  2
AcDbTableStyle
  3
ObjectDBX Classes
 90
     4095
 91
        1
280
     0
281
     0
  0
CLASS
  1
MATERIAL
  2
AcDbMaterial
  3
ObjectDBX Classes
 90
     1153
 91
        3
280
     0
281
     0
  0
CLASS
  1
VISUALSTYLE
  2
AcDbVisualStyle
  3
ObjectDBX Classes
 90
     4095
 91
        3
280
     0
281
     0
  0
CLASS
  1
SCALE
  2
AcDbScale
  3
ObjectDBX Classes
 90
     1153
 91
       33
280
     0
281
     0
  0
CLASS
  1
MLEADERSTYLE
  2
AcDbMLeaderStyle
  3
ACDB_MLEADERSTYLE_CLASS
 90
     4095
 91
        0
280
     0
281
     0
  0
CLASS
  1
CELLSTYLEMAP
  2
AcDbCellStyleMap
  3
ObjectDBX Classes
 90
     1152
 91
        1
280
     0
281
     0
  0
CLASS
  1
EXACXREFPANELOBJECT
  2
ExAcXREFPanelObject
  3
EXAC_ESW
 90
     1025
 91
        0
280
     1
281
     0
  0
CLASS
  1
NPOCOLLECTION
  2
AcDbImpNonPersistentObjectsCollection
  3
ObjectDBX Classes
 90
     1153
 91
        0
280
     0
281
     0
  0
CLASS
  1
LAYER_INDEX
  2
AcDbLayerIndex
  3
ObjectDBX Classes
 90
        0
 91
        0
280
     0
281
     0
  0
CLASS
  1
SPATIAL_INDEX
  2
AcDbSpatialIndex
  3
ObjectDBX Classes
 90
        0
 91
        0
280
     0
281
     0
  0
CLASS
  1
IDBUFFER
  2
AcDbIdBuffer
  3
ObjectDBX Classes
 90
        0
 91
        0
280
     0
281
     0
  0
CLASS
  1
ACDBSECTIONVIEWSTYLE
  2
AcDbSectionViewStyle
  3
ObjectDBX Classes
 90
     1025
 91
        0
280
     0
281
     0
  0
CLASS
  1
ACDBDETAILVIEWSTYLE
  2
AcDbDetailViewStyle
  3
ObjectDBX Classes
 90
     1025
 91
        0
280
     0
281
     0
  0
CLASS
  1
PLOTSETTINGS
  2
AcDbPlotSettings
  3
ObjectDBX Classes
 90
        0
 91
        0
280
     0
281
     0
  0
CLASS
  1
IMAGEDEF
  2
AcDbRasterImageDef
  3
ISM
 90
        0
 91
        0
280
     0
281
     0
  0
CLASS
  1
SORTENTSTABLE
  2
AcDbSortentsTable
  3
ObjectDBX Classes
 90
        0
 91
        1
280
     0
281
     0
  0
CLASS
  1
IMAGE
  2
AcDbRasterImage
  3
ISM
 90
     2175
 91
        0
280
     0
281
     1
  0
CLASS
  1
IMAGEDEF_REACTOR
  2
AcDbRasterImageDefReactor
  3
ISM
 90
        1
 91
        0
280
     0
281
     0
  0
CLASS
  1
RASTERVARIABLES
  2
AcDbRasterVariables
  3
ISM
 90
        0
 91
        0
280
     0
281
     0
  0
ENDSEC
  0
SECTION
  2
TABLES
  0
TABLE
  2
VPORT
  5
28
330
0
100
AcDbSymbolTable
 70
     1
  0
VPORT
  5
29
330
28
100
AcDbSymbolTableRecord
100
AcDbViewportTableRecord
  2
*Active
 70
     0
 10
0.0
 20
0.0
 11
1.0
 21
1.0
 12
-11067.36598227819
 22
41692.98530825108
 13
0.0
 23
0.0
 14
10.0
 24
10.0
 15
10.0
 25
10.0
 16
0.0
 26
0.0
 36
1.0
 17
0.0
 27
0.0
 37
0.0
 40
513175.4808151733
 41
1.838794233289646
 42
50.0
 43
0.0
 44
0.0
 50
0.0
 51
0.0
 71
     0
 72
  1000
 73
     1
 74
     3
 75
     0
 76
     0
 77
     0
 78
     0
281
     0
 65
     1
110
0.0
120
0.0
130
0.0
111
1.0
121
0.0
131
0.0
112
0.0
122
1.0
132
0.0
 79
     0
146
0.0
348
2A
 60
     3
 61
     5
292
     1
282
     1
141
0.0
142
0.0
 63
   250
421
  3355443
1001
ACAD_NAV_VCDISPLAY
1070
     3
  0
ENDTAB
  0
TABLE
  2
LTYPE
  5
23
330
0
100
AcDbSymbolTable
 70
     1
  0
LTYPE
  5
24
330
23
100
AcDbSymbolTableRecord
100
AcDbLinetypeTableRecord
  2
ByBlock
 70
     0
  3

 72
    65
 73
     0
 40
0.0
  0
LTYPE
  5
25
330
23
100
AcDbSymbolTableRecord
100
AcDbLinetypeTableRecord
  2
ByLayer
 70
     0
  3

 72
    65
 73
     0
 40
0.0
  0
LTYPE
  5
13
330
23
100
AcDbSymbolTableRecord
100
AcDbLinetypeTableRecord
  2
Continuous
 70
     0
  3
Solid line
 72
    65
 73
     0
 40
0.0
  0
ENDTAB
  0
TABLE
  2
LAYER
  5
1D
102
{ACAD_XDICTIONARY
360
1E
102
}
330
0
100
AcDbSymbolTable
 70
     4
  0
LAYER
  5
5
102
{ACAD_XDICTIONARY
360
6
102
}
330
1D
100
AcDbSymbolTableRecord
100
AcDbLayerTableRecord
  2
0
 70
     0
 62
     7
  6
Continuous
370
    -3
390
7
347
A
348
0
  0
LAYER
  5
407
330
1D
100
AcDbSymbolTableRecord
100
AcDbLayerTableRecord
  2
A-____-____-IDEN
 70
     0
 62
   131
  6
Continuous
370
    30
390
7
347
A
348
0
  0
LAYER
  5
77
330
1D
100
AcDbSymbolTableRecord
100
AcDbLayerTableRecord
  2
P-PIPE-____-OTLN
 70
     0
 62
     3
  6
Continuous
370
    18
390
7
347
A
348
0
  0
LAYER
  5
3FA
330
1D
100
AcDbSymbolTableRecord
100
AcDbLayerTableRecord
  2
G-____-____-SYMB
 70
     0
 62
   111
  6
Continuous
370
    30
390
7
347
A
348
0
  0
ENDTAB
  0
TABLE
  2
STYLE
  5
20
330
0
100
AcDbSymbolTable
 70
     2
  0
STYLE
  5
21
330
20
100
AcDbSymbolTableRecord
100
AcDbTextStyleTableRecord
  2
Standard
 70
     0
 40
0.0
 41
1.0
 50
0.0
 71
     0
 42
2.5
  3
arial.ttf
  4

1001
ACAD
1000
Arial
1071
       34
  0
STYLE
  5
40D
330
20
100
AcDbSymbolTableRecord
100
AcDbTextStyleTableRecord
  2
Arial
 70
     0
 40
12.5
 41
1.0
 50
0.0
 71
     0
 42
0.2
  3
arial.ttf
  4

1001
ACAD
1000
Arial
1071
       34
  0
ENDTAB
  0
TABLE
  2
VIEW
  5
26
330
0
100
AcDbSymbolTable
 70
     0
  0
ENDTAB
  0
TABLE
  2
UCS
  5
27
330
0
100
AcDbSymbolTable
 70
     0
  0
ENDTAB
  0
TABLE
  2
APPID
  5
2D
330
0
100
AcDbSymbolTable
 70
     7
  0
APPID
  5
12
330
2D
100
AcDbSymbolTableRecord
100
AcDbRegAppTableRecord
  2
ACAD
 70
     0
  0
APPID
  5
18
330
2D
100
AcDbSymbolTableRecord
100
AcDbRegAppTableRecord
  2
ACAD_PSEXT
 70
     0
  0
APPID
  5
31
330
2D
100
AcDbSymbolTableRecord
100
AcDbRegAppTableRecord
  2
AcadAnnotative
 70
     0
  0
APPID
  5
32
330
2D
100
AcDbSymbolTableRecord
100
AcDbRegAppTableRecord
  2
ACAD_DSTYLE_DIMJAG
 70
     0
  0
APPID
  5
33
330
2D
100
AcDbSymbolTableRecord
100
AcDbRegAppTableRecord
  2
ACAD_DSTYLE_DIMTALN
 70
     0
  0
APPID
  5
2C
330
2D
100
AcDbSymbolTableRecord
100
AcDbRegAppTableRecord
  2
ACAD_NAV_VCDISPLAY
 70
     0
  0
APPID
  5
3F7
330
2D
100
AcDbSymbolTableRecord
100
AcDbRegAppTableRecord
  2
REVIT
 70
     0
  0
ENDTAB
  0
TABLE
  2
DIMSTYLE
  5
2E
330
0
100
AcDbSymbolTable
 70
     2
100
AcDbDimStyleTable
 71
     2
340
2F
340
30
  0
DIMSTYLE
105
30
330
2E
100
AcDbSymbolTableRecord
100
AcDbDimStyleTableRecord
  2
Annotative
 70
     0
 40
0.0
 41
2.5
 42
0.625
 43
3.75
 44
1.25
 73
     0
 74
     0
 77
     1
 78
     8
140
2.5
141
2.5
143
0.03937007874016
147
0.625
171
     3
172
     1
271
     2
272
     2
274
     3
278
    44
283
     0
284
     8
340
21
1001
AcadAnnotative
1000
AnnotativeData
1002
{
1070
     1
1070
     1
1002
}
1001
ACAD_DSTYLE_DIMJAG
1070
   388
1040
1.5
1001
ACAD_DSTYLE_DIMTALN
1070
   392
1070
     0
  0
DIMSTYLE
105
2F
330
2E
100
AcDbSymbolTableRecord
100
AcDbDimStyleTableRecord
  2
ISO-25
 70
     0
 41
2.5
 42
0.625
 43
3.75
 44
1.25
 73
     0
 74
     0
 77
     1
 78
     8
140
2.5
141
2.5
143
0.03937007874016
147
0.625
171
     3
172
     1
271
     2
272
     2
274
     3
278
    44
283
     0
284
     8
340
21
  0
ENDTAB
  0
TABLE
  2
BLOCK_RECORD
  5
1
330
0
100
AcDbSymbolTable
 70
     2
  0
BLOCK_RECORD
  5
2
102
{ACAD_XDICTIONARY
360
3
102
}
330
1
100
AcDbSymbolTableRecord
100
AcDbBlockTableRecord
  2
*Model_Space
340
15
 70
     0
280
     1
281
     0
  0
BLOCK_RECORD
  5
19
330
1
100
AcDbSymbolTableRecord
100
AcDbBlockTableRecord
  2
*Paper_Space
340
1C
 70
     0
280
     1
281
     0
  0
BLOCK_RECORD
  5
74
330
1
100
AcDbSymbolTableRecord
100
AcDbBlockTableRecord
  2
Viking_Roofspec Revit Components_rvt-1-vik_ass_070 pipe seals 703
340
0
102
{BLKREFS
331
73
102
}
 70
     0
280
     1
281
     0
  0
BLOCK_RECORD
  5
78
330
1
100
AcDbSymbolTableRecord
100
AcDbBlockTableRecord
  2
Viking Roofspec Pipe Seal 01 M12 - Pipe Seal - Grey - 19mm - 205mm _pipe size_-947951-vik_ass_070 pipe seals 703
340
0
102
{BLKREFS
331
76
102
}
 70
     0
280
     1
281
     0
  0
ENDTAB
  0
ENDSEC
  0
SECTION
  2
BLOCKS
  0
BLOCK
  5
4
330
2
100
AcDbEntity
  8
0
100
AcDbBlockBegin
  2
*Model_Space
 70
     0
 10
0.0
 20
0.0
 30
0.0
  3
*Model_Space
  1

  0
ENDBLK
  5
14
330
2
100
AcDbEntity
  8
0
100
AcDbBlockEnd
  0
BLOCK
  5
1A
330
19
100
AcDbEntity
 67
     1
  8
0
100
AcDbBlockBegin
  2
*Paper_Space
 70
     0
 10
0.0
 20
0.0
 30
0.0
  3
*Paper_Space
  1

  0
ENDBLK
  5
1B
330
19
100
AcDbEntity
 67
     1
  8
0
100
AcDbBlockEnd
  0
BLOCK
  5
75
330
74
100
AcDbEntity
  8
0
100
AcDbBlockBegin
  2
Viking_Roofspec Revit Components_rvt-1-vik_ass_070 pipe seals 703
 70
     0
 10
0.0
 20
0.0
 30
0.0
  3
Viking_Roofspec Revit Components_rvt-1-vik_ass_070 pipe seals 703
  1

  0
INSERT
  5
76
330
74
100
AcDbEntity
  8
P-PIPE-____-OTLN
370
    18
100
AcDbBlockReference
  2
Viking Roofspec Pipe Seal 01 M12 - Pipe Seal - Grey - 19mm - 205mm _pipe size_-947951-vik_ass_070 pipe seals 703
 10
0.0
 20
0.0
 30
0.0
1001
REVIT
1002
{
1070
     2
1000
2705_-2008049
1002
}
  0
ENDBLK
  5
3F8
330
74
100
AcDbEntity
  8
0
100
AcDbBlockEnd
  0
BLOCK
  5
79
330
78
100
AcDbEntity
  8
0
100
AcDbBlockBegin
  2
Viking Roofspec Pipe Seal 01 M12 - Pipe Seal - Grey - 19mm - 205mm _pipe size_-947951-vik_ass_070 pipe seals 703
 70
     0
 10
0.0
 20
0.0
 30
0.0
  3
Viking Roofspec Pipe Seal 01 M12 - Pipe Seal - Grey - 19mm - 205mm _pipe size_-947951-vik_ass_070 pipe seals 703
  1

  0
LINE
  5
7A
330
78
100
AcDbEntity
  8
P-PIPE-____-OTLN
100
AcDbLine
 10
-6319.867214400798
 20
-3332.817432087789
 30
0.0
 11
-6320.943281893362
 21
-3330.987062686329
 31
0.0
  0
LINE
  5
7B
330
78
100
AcDbEntity
  8
P-PIPE-____-OTLN
100
AcDbLine
 10
-6421.697986133714
 20
-3330.98706268633
 30
0.0
 11
-6422.774053626277
 21
-3332.817432087792
 31
0.0
  0
POLYLINE
  5
7C
330
78
100
AcDbEntity
  8
P-PIPE-____-OTLN
100
AcDb3dPolyline
 66
     1
 10
0.0
 20
0.0
 30
0.0
 70
     8
  0
VERTEX
  5
7D
330
7C
100
AcDbEntity
  8
P-PIPE-____-OTLN
100
AcDbVertex
100
AcDb3dPolylineVertex
 10
-6327.675239364459
 20
-3364.692774749343
 30
0.0
 70
    32
  0
VERTEX
  5
7E
330
7C
100
AcDbEntity
  8
P-PIPE-____-OTLN
100
AcDbVertex
100
AcDb3dPolylineVertex
 10
-6326.320683007084
 20
-3363.653413017108
 30
0.0
 70
    32
  0
VERTEX
  5
7F
330
7C
100
AcDbEntity
  8
P-PIPE-____-OTLN
100
AcDbVertex
100
AcDb3dPolylineVertex
 10
-6325.036036251034
 20
-3362.580966103872
 30
0.0
 70
    32
  0
VERTEX
  5
80
330
7C
100
AcDbEntity
  8
P-PIPE-____-OTLN
100
AcDbVertex
100
AcDb3dPolylineVertex
 10
-6323.82346181519
 20
-3361.476768154331
 30
0.0
 70
    32
  0
VERTEX
  5
81
330
7C
100
AcDbEntity
  8
P-PIPE-____-OTLN
100
AcDbVertex
100
AcDb3dPolylineVertex
 10
-6322.685065546609
 20
-3360.342194484676
 30
0.0
 70
    32
  0
VERTEX
  5
82
330
7C
100
AcDbEntity
  8
P-PIPE-____-OTLN
100
AcDbVertex
100
AcDb3dPolylineVertex
 10
-6321.622902169411
 20
-3359.178669809456
 30
0.0
 70
    32
  0
VERTEX
  5
83
330
7C
100
AcDbEntity
  8
P-PIPE-____-OTLN
100
AcDbVertex
100
AcDb3dPolylineVertex
 10
-6320.638980328774
 20
-3357.987680108005
 30
0.0
 70
    32
  0
VERTEX
  5
84
330
7C
100
AcDbEntity
  8
P-PIPE-____-OTLN
100
AcDbVertex
100
AcDb3dPolylineVertex
 10
-6319.73526575836
 20
-3356.770788463194
 30
0.0
 70
    32
  0
VERTEX
  5
85
330
7C
100
AcDbEntity
  8
P-PIPE-____-OTLN
100
AcDbVertex
100
AcDb3dPolylineVertex
 10
-6318.913681050817
 20
-3355.52965482932
 30
0.0
 70
    32
  0
VERTEX
  5
86
330
7C
100
AcDbEntity
  8
P-PIPE-____-OTLN
100
AcDbVertex
100
AcDb3dPolylineVertex
 10
-6318.176100238422
 20
-3354.266059086702
 30
0.0
 70
    32
  0
VERTEX
  5
87
330
7C
100
AcDbEntity
  8
P-PIPE-____-OTLN
100
AcDbVertex
100
AcDb3dPolylineVertex
 10
-6317.524336316
 20
-3352.981925913621
 30
0.0
 70
    32
  0
VERTEX
  5
88
330
7C
100
AcDbEntity
  8
P-PIPE-____-OTLN
100
AcDbVertex
100
AcDb3dPolylineVertex
 10
-6316.96012011105
 20
-3351.679349018006
 30
0.0
 70
    32
  0
VERTEX
  5
89
330
7C
100
AcDbEntity
  8
P-PIPE-____-OTLN
100
AcDbVertex
100
AcDb3dPolylineVertex
 10
-6316.485069667205
 20
-3350.360611289395
 30
0.0
 70
    32
  0
VERTEX
  5
8A
330
7C
100
AcDbEntity
  8
P-PIPE-____-OTLN
100
AcDbVertex
100
AcDb3dPolylineVertex
 10
-6316.100650621377
 20
-3349.028196734185
 30
0.0
 70
    32
  0
VERTEX
  5
8B
330
7C
100
AcDbEntity
  8
P-PIPE-____-OTLN
100
AcDbVertex
100
AcDb3dPolylineVertex
 10
-6315.808129829236
 20
-3347.684789990335
 30
0.0
 70
    32
  0
VERTEX
  5
8C
330
7C
100
AcDbEntity
  8
P-PIPE-____-OTLN
100
AcDbVertex
100
AcDb3dPolylineVertex
 10
-6315.608526417952
 20
-3346.333260089296
 30
0.0
 70
    32
  0
VERTEX
  5
8D
330
7C
100
AcDbEntity
  8
P-PIPE-____-OTLN
100
AcDbVertex
100
AcDb3dPolylineVertex
 10
-6315.502566008039
 20
-3344.976627054899
 30
0.0
 70
    32
  0
VERTEX
  5
8E
330
7C
100
AcDbEntity
  8
P-PIPE-____-OTLN
100
AcDbVertex
100
AcDb3dPolylineVertex
 10
-6315.490644466862
 20
-3343.61801267482
 30
0.0
 70
    32
  0
VERTEX
  5
8F
330
7C
100
AcDbEntity
  8
P-PIPE-____-OTLN
100
AcDbVertex
100
AcDb3dPolylineVertex
 10
-6315.572806813636
 20
-3342.260579753191
 30
0.0
 70
    32
  0
VERTEX
  5
90
330
7C
100
AcDbEntity
  8
P-PIPE-____-OTLN
100
AcDbVertex
100
AcDb3dPolylineVertex
 10
-6315.74874476049
 20
-3340.907466533197
 30
0.0
 70
    32
  0
VERTEX
  5
91
330
7C
100
AcDbEntity
  8
P-PIPE-____-OTLN
100
AcDbVertex
100
AcDb3dPolylineVertex
 10
-6316.017813305496
 20
-3339.561724024664
 30
0.0
 70
    32
  0
VERTEX
  5
92
330
7C
100
AcDbEntity
  8
P-PIPE-____-OTLN
100
AcDbVertex
100
AcDb3dPolylineVertex
 10
-6316.379063610298
 20
-3338.226263339202
 30
0.0
 70
    32
  0
VERTEX
  5
93
330
7C
100
AcDbEntity
  8
P-PIPE-____-OTLN
100
AcDbVertex
100
AcDb3dPolylineVertex
 10
-6316.831286961547
 20
-3336.903818033841
 30
0.0
 70
    32
  0
VERTEX
  5
94
330
7C
100
AcDbEntity
  8
P-PIPE-____-OTLN
100
AcDbVertex
100
AcDb3dPolylineVertex
 10
-6317.373063503461
 20
-3335.59692356093
 30
0.0
 70
    32
  0
VERTEX
  5
95
330
7C
100
AcDbEntity
  8
P-PIPE-____-OTLN
100
AcDbVertex
100
AcDb3dPolylineVertex
 10
-6318.002809731876
 20
-3334.307913049281
 30
0.0
 70
    32
  0
VERTEX
  5
96
330
7C
100
AcDbEntity
  8
P-PIPE-____-OTLN
100
AcDbVertex
100
AcDb3dPolylineVertex
 10
-6318.718820117464
 20
-3333.03892647425
 30
0.0
 70
    32
  0
VERTEX
  5
97
330
7C
100
AcDbEntity
  8
P-PIPE-____-OTLN
100
AcDbVertex
100
AcDb3dPolylineVertex
 10
-6319.519300112939
 20
-3331.79192913577
 30
0.0
 70
    32
  0
VERTEX
  5
98
330
7C
100
AcDbEntity
  8
P-PIPE-____-OTLN
100
AcDbVertex
100
AcDb3dPolylineVertex
 10
-6320.402389649644
 20
-3330.568735216904
 30
0.0
 70
    32
  0
VERTEX
  5
99
330
7C
100
AcDbEntity
  8
P-PIPE-____-OTLN
100
AcDbVertex
100
AcDb3dPolylineVertex
 10
-6321.366177676427
 20
-3329.371032766702
 30
0.0
 70
    32
  0
VERTEX
  5
9A
330
7C
100
AcDbEntity
  8
P-PIPE-____-OTLN
100
AcDbVertex
100
AcDb3dPolylineVertex
 10
-6322.408709193778
 20
-3328.200407391307
 30
0.0
 70
    32
  0
VERTEX
  5
9B
330
7C
100
AcDbEntity
  8
P-PIPE-____-OTLN
100
AcDbVertex
100
AcDb3dPolylineVertex
 10
-6323.527986620966
 20
-3327.058362944123
 30
0.0
 70
    32
  0
VERTEX
  5
9C
330
7C
100
AcDbEntity
  8
P-PIPE-____-OTLN
100
AcDbVertex
100
AcDb3dPolylineVertex
 10
-6324.721967332464
 20
-3325.946338383602
 30
0.0
 70
    32
  0
VERTEX
  5
9D
330
7C
100
AcDbEntity
  8
P-PIPE-____-OTLN
100
AcDbVertex
100
AcDb3dPolylineVertex
 10
-6325.988558964318
 20
-3324.86572062577
 30
0.0
 70
    32
  0
VERTEX
  5
9E
330
7C
100
AcDbEntity
  8
P-PIPE-____-OTLN
100
AcDbVertex
100
AcDb3dPolylineVertex
 10
-6327.325613752571
 20
-3323.817853648281
 30
0.0
 70
    32
  0
VERTEX
  5
9F
330
7C
100
AcDbEntity
  8
P-PIPE-____-OTLN
100
AcDbVertex
100
AcDb3dPolylineVertex
 10
-6328.730922815313
 20
-3322.80404433765
 30
0.0
 70
    32
  0
VERTEX
  5
A0
330
7C
100
AcDbEntity
  8
P-PIPE-____-OTLN
100
AcDbVertex
100
AcDb3dPolylineVertex
 10
-6330.202210979943
 20
-3321.825565662645
 30
0.0
 70
    32
  0
VERTEX
  5
A1
330
7C
100
AcDbEntity
  8
P-PIPE-____-OTLN
100
AcDbVertex
100
AcDb3dPolylineVertex
 10
-6331.737132509445
 20
-3320.883657754637
 30
0.0
 70
    32
  0
VERTEX
  5
A2
330
7C
100
AcDbEntity
  8
P-PIPE-____-OTLN
100
AcDbVertex
100
AcDb3dPolylineVertex
 10
-6333.3332678987
 20
-3319.979527420632
 30
0.0
 70
    32
  0
VERTEX
  5
A3
330
7C
100
AcDbEntity
  8
P-PIPE-____-OTLN
100
AcDbVertex
100
AcDb3dPolylineVertex
 10
-6334.988121786453
 20
-3319.114346535786
 30
0.0
 70
    32
  0
VERTEX
  5
A4
330
7C
100
AcDbEntity
  8
P-PIPE-____-OTLN
100
AcDbVertex
100
AcDb3dPolylineVertex
 10
-6336.699121948773
 20
-3318.289249678166
 30
0.0
 70
    32
  0
VERTEX
  5
A5
330
7C
100
AcDbEntity
  8
P-PIPE-____-OTLN
100
AcDbVertex
100
AcDb3dPolylineVertex
 10
-6338.46361929416
 20
-3317.505331289781
 30
0.0
 70
    32
  0
VERTEX
  5
A6
330
7C
100
AcDbEntity
  8
P-PIPE-____-OTLN
100
AcDbVertex
100
AcDb3dPolylineVertex
 10
-6340.278888758078
 20
-3316.763642579691
 30
0.0
 70
    32
  0
VERTEX
  5
A7
330
7C
100
AcDbEntity
  8
P-PIPE-____-OTLN
100
AcDbVertex
100
AcDb3dPolylineVertex
 10
-6342.14213098798
 20
-3316.065188328783
 30
0.0
 70
    32
  0
VERTEX
  5
A8
330
7C
100
AcDbEntity
  8
P-PIPE-____-OTLN
100
AcDbVertex
100
AcDb3dPolylineVertex
 10
-6344.050474712475
 20
-3315.410923711155
 30
0.0
 70
    32
  0
VERTEX
  5
A9
330
7C
100
AcDbEntity
  8
P-PIPE-____-OTLN
100
AcDbVertex
100
AcDb3dPolylineVertex
 10
-6346.000979696075
 20
-3314.801751212714
 30
0.0
 70
    32
  0
VERTEX
  5
AA
330
7C
100
AcDbEntity
  8
P-PIPE-____-OTLN
100
AcDbVertex
100
AcDb3dPolylineVertex
 10
-6347.990640191238
 20
-3314.238517701748
 30
0.0
 70
    32
  0
VERTEX
  5
AB
330
7C
100
AcDbEntity
  8
P-PIPE-____-OTLN
100
AcDbVertex
100
AcDb3dPolylineVertex
 10
-6350.016388810299
 20
-3313.722011687315
 30
0.0
 70
    32
  0
VERTEX
  5
AC
330
7C
100
AcDbEntity
  8
P-PIPE-____-OTLN
100
AcDbVertex
100
AcDb3dPolylineVertex
 10
-6352.075100750409
 20
-3313.252960787657
 30
0.0
 70
    32
  0
VERTEX
  5
AD
330
7C
100
AcDbEntity
  8
P-PIPE-____-OTLN
100
AcDbVertex
100
AcDb3dPolylineVertex
 10
-6354.163598314239
 20
-3312.83202942128
 30
0.0
 70
    32
  0
VERTEX
  5
AE
330
7C
100
AcDbEntity
  8
P-PIPE-____-OTLN
100
AcDbVertex
100
AcDb3dPolylineVertex
 10
-6356.278655677613
 20
-3312.459816726916
 30
0.0
 70
    32
  0
VERTEX
  5
AF
330
7C
100
AcDbEntity
  8
P-PIPE-____-OTLN
100
AcDbVertex
100
AcDb3dPolylineVertex
 10
-6358.417003862486
 20
-3312.136854714181
 30
0.0
 70
    32
  0
VERTEX
  5
B0
330
7C
100
AcDbEntity
  8
P-PIPE-____-OTLN
100
AcDbVertex
100
AcDb3dPolylineVertex
 10
-6360.575335879675
 20
-3311.863606644166
 30
0.0
 70
    32
  0
VERTEX
  5
B1
330
7C
100
AcDbEntity
  8
P-PIPE-____-OTLN
100
AcDbVertex
100
AcDb3dPolylineVertex
 10
-6362.750312010832
 20
-3311.640465637665
 30
0.0
 70
    32
  0
VERTEX
  5
B2
330
7C
100
AcDbEntity
  8
P-PIPE-____-OTLN
100
AcDbVertex
100
AcDb3dPolylineVertex
 10
-6364.938565202999
 20
-3311.467753507953
 30
0.0
 70
    32
  0
VERTEX
  5
B3
330
7C
100
AcDbEntity
  8
P-PIPE-____-OTLN
100
AcDbVertex
100
AcDb3dPolylineVertex
 10
-6367.136706552475
 20
-3311.345719814989
 30
0.0
 70
    32
  0
VERTEX
  5
B4
330
7C
100
AcDbEntity
  8
P-PIPE-____-OTLN
100
AcDbVertex
100
AcDb3dPolylineVertex
 10
-6369.341330857047
 20
-3311.27454113804
 30
0.0
 70
    32
  0
VERTEX
  5
B5
330
7C
100
AcDbEntity
  8
P-PIPE-____-OTLN
100
AcDbVertex
100
AcDb3dPolylineVertex
 10
-6371.549022217598
 20
-3311.254320564258
 30
0.0
 70
    32
  0
VERTEX
  5
B6
330
7C
100
AcDbEntity
  8
P-PIPE-____-OTLN
100
AcDbVertex
100
AcDb3dPolylineVertex
 10
-6373.756359671356
 20
-3311.28508739136
 30
0.0
 70
    32
  0
VERTEX
  5
B7
330
7C
100
AcDbEntity
  8
P-PIPE-____-OTLN
100
AcDbVertex
100
AcDb3dPolylineVertex
 10
-6375.95992283994
 20
-3311.366797043293
 30
0.0
 70
    32
  0
VERTEX
  5
B8
330
7C
100
AcDbEntity
  8
P-PIPE-____-OTLN
100
AcDbVertex
100
AcDb3dPolylineVertex
 10
-6378.156297575703
 20
-3311.499331198574
 30
0.0
 70
    32
  0
VERTEX
  5
B9
330
7C
100
AcDbEntity
  8
P-PIPE-____-OTLN
100
AcDbVertex
100
AcDb3dPolylineVertex
 10
-6380.342081589841
 20
-3311.682498131788
 30
0.0
 70
    32
  0
VERTEX
  5
BA
330
7C
100
AcDbEntity
  8
P-PIPE-____-OTLN
100
AcDbVertex
100
AcDb3dPolylineVertex
 10
-6382.513890045276
 20
-3311.916033269503
 30
0.0
 70
    32
  0
VERTEX
  5
BB
330
7C
100
AcDbEntity
  8
P-PIPE-____-OTLN
100
AcDbVertex
100
AcDb3dPolylineVertex
 10
-6384.668361096356
 20
-3312.199599962615
 30
0.0
 70
    32
  0
VERTEX
  5
BC
330
7C
100
AcDbEntity
  8
P-PIPE-____-OTLN
100
AcDbVertex
100
AcDb3dPolylineVertex
 10
-6386.80216135603
 20
-3312.532790477695
 30
0.0
 70
    32
  0
VERTEX
  5
BD
330
7C
100
AcDbEntity
  8
P-PIPE-____-OTLN
100
AcDbVertex
100
AcDb3dPolylineVertex
 10
-6388.911991269134
 20
-3312.915127210385
 30
0.0
 70
    32
  0
VERTEX
  5
BE
330
7C
100
AcDbEntity
  8
P-PIPE-____-OTLN
100
AcDbVertex
100
AcDb3dPolylineVertex
 10
-6390.994590367849
 20
-3313.346064124045
 30
0.0
 70
    32
  0
VERTEX
  5
BF
330
7C
100
AcDbEntity
  8
P-PIPE-____-OTLN
100
AcDbVertex
100
AcDb3dPolylineVertex
 10
-6393.046742381979
 20
-3313.824988416562
 30
0.0
 70
    32
  0
VERTEX
  5
C0
330
7C
100
AcDbEntity
  8
P-PIPE-____-OTLN
100
AcDbVertex
100
AcDb3dPolylineVertex
 10
-6395.065280172547
 20
-3314.351222417416
 30
0.0
 70
    32
  0
VERTEX
  5
C1
330
7C
100
AcDbEntity
  8
P-PIPE-____-OTLN
100
AcDbVertex
100
AcDb3dPolylineVertex
 10
-6397.047090451984
 20
-3314.924025715346
 30
0.0
 70
    32
  0
VERTEX
  5
C2
330
7C
100
AcDbEntity
  8
P-PIPE-____-OTLN
100
AcDbVertex
100
AcDb3dPolylineVertex
 10
-6398.989118247913
 20
-3315.542597513998
 30
0.0
 70
    32
  0
VERTEX
  5
C3
330
7C
100
AcDbEntity
  8
P-PIPE-____-OTLN
100
AcDbVertex
100
AcDb3dPolylineVertex
 10
-6400.88837106006
 20
-3316.206079208277
 30
0.0
 70
    32
  0
VERTEX
  5
C4
330
7C
100
AcDbEntity
  8
P-PIPE-____-OTLN
100
AcDbVertex
100
AcDb3dPolylineVertex
 10
-6402.741922651154
 20
-3316.913557166997
 30
0.0
 70
    32
  0
VERTEX
  5
C5
330
7C
100
AcDbEntity
  8
P-PIPE-____-OTLN
100
AcDbVertex
100
AcDb3dPolylineVertex
 10
-6404.546916402793
 20
-3317.66406569724
 30
0.0
 70
    32
  0
VERTEX
  5
C6
330
7C
100
AcDbEntity
  8
P-PIPE-____-OTLN
100
AcDbVertex
100
AcDb3dPolylineVertex
 10
-6406.300568156679
 20
-3318.456590151094
 30
0.0
 70
    32
  0
VERTEX
  5
C7
330
7C
100
AcDbEntity
  8
P-PIPE-____-OTLN
100
AcDbVertex
100
AcDb3dPolylineVertex
 10
-6408.000168450619
 20
-3319.290070115303
 30
0.0
 70
    32
  0
VERTEX
  5
C8
330
7C
100
AcDbEntity
  8
P-PIPE-____-OTLN
100
AcDbVertex
100
AcDb3dPolylineVertex
 10
-6409.643084048969
 20
-3320.163402596911
 30
0.0
 70
    32
  0
VERTEX
  5
C9
330
7C
100
AcDbEntity
  8
P-PIPE-____-OTLN
100
AcDbVertex
100
AcDb3dPolylineVertex
 10
-6410.4923769201
 20
-3320.643427793593
 30
0.0
 70
    32
  0
SEQEND
  5
CA
330
7C
100
AcDbEntity
  8
P-PIPE-____-OTLN
  0
POLYLINE
  5
CB
330
78
100
AcDbEntity
  8
P-PIPE-____-OTLN
100
AcDb3dPolyline
 66
     1
 10
0.0
 20
0.0
 30
0.0
 70
     8
  0
VERTEX
  5
CC
330
CB
100
AcDbEntity
  8
P-PIPE-____-OTLN
100
AcDbVertex
100
AcDb3dPolylineVertex
 10
-6414.966028662615
 20
-3364.692774749344
 30
0.0
 70
    32
  0
VERTEX
  5
CD
330
CB
100
AcDbEntity
  8
P-PIPE-____-OTLN
100
AcDbVertex
100
AcDb3dPolylineVertex
 10
-6416.320585019992
 20
-3363.65341301711
 30
0.0
 70
    32
  0
VERTEX
  5
CE
330
CB
100
AcDbEntity
  8
P-PIPE-____-OTLN
100
AcDbVertex
100
AcDb3dPolylineVertex
 10
-6417.605231776041
 20
-3362.580966103873
 30
0.0
 70
    32
  0
VERTEX
  5
CF
330
CB
100
AcDbEntity
  8
P-PIPE-____-OTLN
100
AcDbVertex
100
AcDb3dPolylineVertex
 10
-6418.817806211885
 20
-3361.476768154334
 30
0.0
 70
    32
  0
VERTEX
  5
D0
330
CB
100
AcDbEntity
  8
P-PIPE-____-OTLN
100
AcDbVertex
100
AcDb3dPolylineVertex
 10
-6419.956202480465
 20
-3360.342194484678
 30
0.0
 70
    32
  0
VERTEX
  5
D1
330
CB
100
AcDbEntity
  8
P-PIPE-____-OTLN
100
AcDbVertex
100
AcDb3dPolylineVertex
 10
-6421.018365857664
 20
-3359.178669809458
 30
0.0
 70
    32
  0
VERTEX
  5
D2
330
CB
100
AcDbEntity
  8
P-PIPE-____-OTLN
100
AcDbVertex
100
AcDb3dPolylineVertex
 10
-6422.002287698301
 20
-3357.987680108007
 30
0.0
 70
    32
  0
VERTEX
  5
D3
330
CB
100
AcDbEntity
  8
P-PIPE-____-OTLN
100
AcDbVertex
100
AcDb3dPolylineVertex
 10
-6422.906002268715
 20
-3356.770788463196
 30
0.0
 70
    32
  0
VERTEX
  5
D4
330
CB
100
AcDbEntity
  8
P-PIPE-____-OTLN
100
AcDbVertex
100
AcDb3dPolylineVertex
 10
-6423.727586976259
 20
-3355.529654829322
 30
0.0
 70
    32
  0
VERTEX
  5
D5
330
CB
100
AcDbEntity
  8
P-PIPE-____-OTLN
100
AcDbVertex
100
AcDb3dPolylineVertex
 10
-6424.465167788653
 20
-3354.266059086704
 30
0.0
 70
    32
  0
VERTEX
  5
D6
330
CB
100
AcDbEntity
  8
P-PIPE-____-OTLN
100
AcDbVertex
100
AcDb3dPolylineVertex
 10
-6425.116931711077
 20
-3352.981925913623
 30
0.0
 70
    32
  0
VERTEX
  5
D7
330
CB
100
AcDbEntity
  8
P-PIPE-____-OTLN
100
AcDbVertex
100
AcDb3dPolylineVertex
 10
-6425.681147916026
 20
-3351.679349018008
 30
0.0
 70
    32
  0
VERTEX
  5
D8
330
CB
100
AcDbEntity
  8
P-PIPE-____-OTLN
100
AcDbVertex
100
AcDb3dPolylineVertex
 10
-6426.156198359871
 20
-3350.360611289396
 30
0.0
 70
    32
  0
VERTEX
  5
D9
330
CB
100
AcDbEntity
  8
P-PIPE-____-OTLN
100
AcDbVertex
100
AcDb3dPolylineVertex
 10
-6426.540617405699
 20
-3349.028196734187
 30
0.0
 70
    32
  0
VERTEX
  5
DA
330
CB
100
AcDbEntity
  8
P-PIPE-____-OTLN
100
AcDbVertex
100
AcDb3dPolylineVertex
 10
-6426.83313819784
 20
-3347.684789990338
 30
0.0
 70
    32
  0
VERTEX
  5
DB
330
CB
100
AcDbEntity
  8
P-PIPE-____-OTLN
100
AcDbVertex
100
AcDb3dPolylineVertex
 10
-6427.032741609123
 20
-3346.333260089298
 30
0.0
 70
    32
  0
VERTEX
  5
DC
330
CB
100
AcDbEntity
  8
P-PIPE-____-OTLN
100
AcDbVertex
100
AcDb3dPolylineVertex
 10
-6427.138702019037
 20
-3344.976627054901
 30
0.0
 70
    32
  0
VERTEX
  5
DD
330
CB
100
AcDbEntity
  8
P-PIPE-____-OTLN
100
AcDbVertex
100
AcDb3dPolylineVertex
 10
-6427.150623560213
 20
-3343.618012674821
 30
0.0
 70
    32
  0
VERTEX
  5
DE
330
CB
100
AcDbEntity
  8
P-PIPE-____-OTLN
100
AcDbVertex
100
AcDb3dPolylineVertex
 10
-6427.06846121344
 20
-3342.260579753193
 30
0.0
 70
    32
  0
VERTEX
  5
DF
330
CB
100
AcDbEntity
  8
P-PIPE-____-OTLN
100
AcDbVertex
100
AcDb3dPolylineVertex
 10
-6426.892523266586
 20
-3340.9074665332
 30
0.0
 70
    32
  0
VERTEX
  5
E0
330
CB
100
AcDbEntity
  8
P-PIPE-____-OTLN
100
AcDbVertex
100
AcDb3dPolylineVertex
 10
-6426.623454721578
 20
-3339.561724024667
 30
0.0
 70
    32
  0
VERTEX
  5
E1
330
CB
100
AcDbEntity
  8
P-PIPE-____-OTLN
100
AcDbVertex
100
AcDb3dPolylineVertex
 10
-6426.262204416778
 20
-3338.226263339203
 30
0.0
 70
    32
  0
VERTEX
  5
E2
330
CB
100
AcDbEntity
  8
P-PIPE-____-OTLN
100
AcDbVertex
100
AcDb3dPolylineVertex
 10
-6425.809981065531
 20
-3336.903818033845
 30
0.0
 70
    32
  0
VERTEX
  5
E3
330
CB
100
AcDbEntity
  8
P-PIPE-____-OTLN
100
AcDbVertex
100
AcDb3dPolylineVertex
 10
-6425.268204523614
 20
-3335.596923560931
 30
0.0
 70
    32
  0
VERTEX
  5
E4
330
CB
100
AcDbEntity
  8
P-PIPE-____-OTLN
100
AcDbVertex
100
AcDb3dPolylineVertex
 10
-6424.6384582952
 20
-3334.307913049283
 30
0.0
 70
    32
  0
VERTEX
  5
E5
330
CB
100
AcDbEntity
  8
P-PIPE-____-OTLN
100
AcDbVertex
100
AcDb3dPolylineVertex
 10
-6423.922447909612
 20
-3333.038926474252
 30
0.0
 70
    32
  0
VERTEX
  5
E6
330
CB
100
AcDbEntity
  8
P-PIPE-____-OTLN
100
AcDbVertex
100
AcDb3dPolylineVertex
 10
-6423.121967914138
 20
-3331.791929135773
 30
0.0
 70
    32
  0
VERTEX
  5
E7
330
CB
100
AcDbEntity
  8
P-PIPE-____-OTLN
100
AcDbVertex
100
AcDb3dPolylineVertex
 10
-6422.238878377432
 20
-3330.568735216906
 30
0.0
 70
    32
  0
VERTEX
  5
E8
330
CB
100
AcDbEntity
  8
P-PIPE-____-OTLN
100
AcDbVertex
100
AcDb3dPolylineVertex
 10
-6421.275090350649
 20
-3329.371032766704
 30
0.0
 70
    32
  0
VERTEX
  5
E9
330
CB
100
AcDbEntity
  8
P-PIPE-____-OTLN
100
AcDbVertex
100
AcDb3dPolylineVertex
 10
-6420.2325588333
 20
-3328.200407391308
 30
0.0
 70
    32
  0
VERTEX
  5
EA
330
CB
100
AcDbEntity
  8
P-PIPE-____-OTLN
100
AcDbVertex
100
AcDb3dPolylineVertex
 10
-6419.113281406111
 20
-3327.058362944124
 30
0.0
 70
    32
  0
VERTEX
  5
EB
330
CB
100
AcDbEntity
  8
P-PIPE-____-OTLN
100
AcDbVertex
100
AcDb3dPolylineVertex
 10
-6417.919300694613
 20
-3325.946338383604
 30
0.0
 70
    32
  0
VERTEX
  5
EC
330
CB
100
AcDbEntity
  8
P-PIPE-____-OTLN
100
AcDbVertex
100
AcDb3dPolylineVertex
 10
-6416.652709062758
 20
-3324.865720625772
 30
0.0
 70
    32
  0
VERTEX
  5
ED
330
CB
100
AcDbEntity
  8
P-PIPE-____-OTLN
100
AcDbVertex
100
AcDb3dPolylineVertex
 10
-6415.315654274505
 20
-3323.817853648281
 30
0.0
 70
    32
  0
VERTEX
  5
EE
330
CB
100
AcDbEntity
  8
P-PIPE-____-OTLN
100
AcDbVertex
100
AcDb3dPolylineVertex
 10
-6413.910345211764
 20
-3322.804044337651
 30
0.0
 70
    32
  0
VERTEX
  5
EF
330
CB
100
AcDbEntity
  8
P-PIPE-____-OTLN
100
AcDbVertex
100
AcDb3dPolylineVertex
 10
-6412.439057047135
 20
-3321.825565662646
 30
0.0
 70
    32
  0
VERTEX
  5
F0
330
CB
100
AcDbEntity
  8
P-PIPE-____-OTLN
100
AcDbVertex
100
AcDb3dPolylineVertex
 10
-6410.904135517633
 20
-3320.883657754638
 30
0.0
 70
    32
  0
VERTEX
  5
F1
330
CB
100
AcDbEntity
  8
P-PIPE-____-OTLN
100
AcDbVertex
100
AcDb3dPolylineVertex
 10
-6410.4923769201
 20
-3320.643427793593
 30
0.0
 70
    32
  0
SEQEND
  5
F2
330
CB
100
AcDbEntity
  8
P-PIPE-____-OTLN
  0
LINE
  5
F3
330
78
100
AcDbEntity
  8
P-PIPE-____-OTLN
100
AcDbLine
 10
-6311.473887958816
 20
-3347.094313419177
 30
0.0
 11
-6318.797043168472
 21
-3334.637772067871
 31
0.0
  0
LINE
  5
F4
330
78
100
AcDbEntity
  8
P-PIPE-____-OTLN
100
AcDbLine
 10
-6423.844224858607
 20
-3334.637772067873
 30
0.0
 11
-6431.167380068259
 21
-3347.094313419178
 31
0.0
  0
LINE
  5
F5
330
78
100
AcDbEntity
  8
P-PIPE-____-OTLN
100
AcDbLine
 10
-6301.291518856006
 20
-3353.368627139268
 30
0.0
 11
-6301.925133934258
 21
-3351.395197944665
 31
0.0
  0
LINE
  5
F6
330
78
100
AcDbEntity
  8
P-PIPE-____-OTLN
100
AcDbLine
 10
-6440.71613409282
 20
-3351.395197944668
 30
0.0
 11
-6441.34974917107
 21
-3353.368627139271
 31
0.0
  0
POLYLINE
  5
F7
330
78
100
AcDbEntity
  8
P-PIPE-____-OTLN
100
AcDb3dPolyline
 66
     1
 10
0.0
 20
0.0
 30
0.0
 70
     8
  0
VERTEX
  5
F8
330
F7
100
AcDbEntity
  8
P-PIPE-____-OTLN
100
AcDbVertex
100
AcDb3dPolylineVertex
 10
-6320.208971745887
 20
-3392.46355166226
 30
0.0
 70
    32
  0
VERTEX
  5
F9
330
F7
100
AcDbEntity
  8
P-PIPE-____-OTLN
100
AcDbVertex
100
AcDb3dPolylineVertex
 10
-6318.189880320887
 20
-3391.250230531737
 30
0.0
 70
    32
  0
VERTEX
  5
FA
330
F7
100
AcDbEntity
  8
P-PIPE-____-OTLN
100
AcDbVertex
100
AcDb3dPolylineVertex
 10
-6316.253646408465
 20
-3389.989441324899
 30
0.0
 70
    32
  0
VERTEX
  5
FB
330
F7
100
AcDbEntity
  8
P-PIPE-____-OTLN
100
AcDbVertex
100
AcDb3dPolylineVertex
 10
-6314.403351594862
 20
-3388.68288230773
 30
0.0
 70
    32
  0
VERTEX
  5
FC
330
F7
100
AcDbEntity
  8
P-PIPE-____-OTLN
100
AcDbVertex
100
AcDb3dPolylineVertex
 10
-6312.641973054412
 20
-3387.33230075562
 30
0.0
 70
    32
  0
VERTEX
  5
FD
330
F7
100
AcDbEntity
  8
P-PIPE-____-OTLN
100
AcDbVertex
100
AcDb3dPolylineVertex
 10
-6310.972386459731
 20
-3385.939492803288
 30
0.0
 70
    32
  0
VERTEX
  5
FE
330
F7
100
AcDbEntity
  8
P-PIPE-____-OTLN
100
AcDbVertex
100
AcDb3dPolylineVertex
 10
-6309.397369905163
 20
-3384.506305218862
 30
0.0
 70
    32
  0
VERTEX
  5
FF
330
F7
100
AcDbEntity
  8
P-PIPE-____-OTLN
100
AcDbVertex
100
AcDb3dPolylineVertex
 10
-6307.919608545281
 20
-3383.034639673502
 30
0.0
 70
    32
  0
VERTEX
  5
100
330
F7
100
AcDbEntity
  8
P-PIPE-____-OTLN
100
AcDbVertex
100
AcDb3dPolylineVertex
 10
-6306.541699419649
 20
-3381.526460097461
 30
0.0
 70
    32
  0
VERTEX
  5
101
330
F7
100
AcDbEntity
  8
P-PIPE-____-OTLN
100
AcDbVertex
100
AcDb3dPolylineVertex
 10
-6305.26615564004
 20
-3379.983803651221
 30
0.0
 70
    32
  0
VERTEX
  5
102
330
F7
100
AcDbEntity
  8
P-PIPE-____-OTLN
100
AcDbVertex
100
AcDb3dPolylineVertex
 10
-6304.09540877277
 20
-3378.408795648132
 30
0.0
 70
    32
  0
VERTEX
  5
103
330
F7
100
AcDbEntity
  8
P-PIPE-____-OTLN
100
AcDbVertex
100
AcDb3dPolylineVertex
 10
-6303.031807899795
 20
-3376.803668390769
 30
0.0
 70
    32
  0
VERTEX
  5
104
330
F7
100
AcDbEntity
  8
P-PIPE-____-OTLN
100
AcDbVertex
100
AcDb3dPolylineVertex
 10
-6302.077613568486
 20
-3375.170783285951
 30
0.0
 70
    32
  0
VERTEX
  5
105
330
F7
100
AcDbEntity
  8
P-PIPE-____-OTLN
100
AcDbVertex
100
AcDb3dPolylineVertex
 10
-6301.234984762687
 20
-3373.512654778228
 30
0.0
 70
    32
  0
VERTEX
  5
106
330
F7
100
AcDbEntity
  8
P-PIPE-____-OTLN
100
AcDbVertex
100
AcDb3dPolylineVertex
 10
-6300.505957296897
 20
-3371.831973654184
 30
0.0
 70
    32
  0
VERTEX
  5
107
330
F7
100
AcDbEntity
  8
P-PIPE-____-OTLN
100
AcDbVertex
100
AcDb3dPolylineVertex
 10
-6299.892412791974
 20
-3370.131626287029
 30
0.0
 70
    32
  0
VERTEX
  5
108
330
F7
100
AcDbEntity
  8
P-PIPE-____-OTLN
100
AcDbVertex
100
AcDb3dPolylineVertex
 10
-6299.396038700475
 20
-3368.41470568973
 30
0.0
 70
    32
  0
VERTEX
  5
109
330
F7
100
AcDbEntity
  8
P-PIPE-____-OTLN
100
AcDbVertex
100
AcDb3dPolylineVertex
 10
-6299.018281620956
 20
-3366.684510171391
 30
0.0
 70
    32
  0
VERTEX
  5
10A
330
F7
100
AcDbEntity
  8
P-PIPE-____-OTLN
100
AcDbVertex
100
AcDb3dPolylineVertex
 10
-6298.760298065534
 20
-3364.944526254645
 30
0.0
 70
    32
  0
VERTEX
  5
10B
330
F7
100
AcDbEntity
  8
P-PIPE-____-OTLN
100
AcDbVertex
100
AcDb3dPolylineVertex
 10
-6298.622908413072
 20
-3363.19839442546
 30
0.0
 70
    32
  0
VERTEX
  5
10C
330
F7
100
AcDbEntity
  8
P-PIPE-____-OTLN
100
AcDbVertex
100
AcDb3dPolylineVertex
 10
-6298.606560411052
 20
-3361.449859027773
 30
0.0
 70
    32
  0
VERTEX
  5
10D
330
F7
100
AcDbEntity
  8
P-PIPE-____-OTLN
100
AcDbVertex
100
AcDb3dPolylineVertex
 10
-6298.711307858321
 20
-3359.702706589755
 30
0.0
 70
    32
  0
VERTEX
  5
10E
330
F7
100
AcDbEntity
  8
P-PIPE-____-OTLN
100
AcDbVertex
100
AcDb3dPolylineVertex
 10
-6298.93680797598
 20
-3357.960699257015
 30
0.0
 70
    32
  0
VERTEX
  5
10F
330
F7
100
AcDbEntity
  8
P-PIPE-____-OTLN
100
AcDbVertex
100
AcDb3dPolylineVertex
 10
-6299.282337909462
 20
-3356.227511067514
 30
0.0
 70
    32
  0
VERTEX
  5
110
330
F7
100
AcDbEntity
  8
P-PIPE-____-OTLN
100
AcDbVertex
100
AcDb3dPolylineVertex
 10
-6299.746827618752
 20
-3354.506674184264
 30
0.0
 70
    32
  0
VERTEX
  5
111
330
F7
100
AcDbEntity
  8
P-PIPE-____-OTLN
100
AcDbVertex
100
AcDb3dPolylineVertex
 10
-6300.328903971002
 20
-3352.801540110237
 30
0.0
 70
    32
  0
VERTEX
  5
112
330
F7
100
AcDbEntity
  8
P-PIPE-____-OTLN
100
AcDbVertex
100
AcDb3dPolylineVertex
 10
-6301.026939725697
 20
-3351.115258009855
 30
0.0
 70
    32
  0
VERTEX
  5
113
330
F7
100
AcDbEntity
  8
P-PIPE-____-OTLN
100
AcDbVertex
100
AcDb3dPolylineVertex
 10
-6301.839101394686
 20
-3349.450769385373
 30
0.0
 70
    32
  0
VERTEX
  5
114
330
F7
100
AcDbEntity
  8
P-PIPE-____-OTLN
100
AcDbVertex
100
AcDb3dPolylineVertex
 10
-6302.763391329926
 20
-3347.810816181201
 30
0.0
 70
    32
  0
VERTEX
  5
115
330
F7
100
AcDbEntity
  8
P-PIPE-____-OTLN
100
AcDbVertex
100
AcDb3dPolylineVertex
 10
-6303.797681276887
 20
-3346.197958241964
 30
0.0
 70
    32
  0
VERTEX
  5
116
330
F7
100
AcDbEntity
  8
P-PIPE-____-OTLN
100
AcDbVertex
100
AcDb3dPolylineVertex
 10
-6304.939736484236
 20
-3344.614595896103
 30
0.0
 70
    32
  0
VERTEX
  5
117
330
F7
100
AcDbEntity
  8
P-PIPE-____-OTLN
100
AcDbVertex
100
AcDb3dPolylineVertex
 10
-6306.187230912077
 20
-3343.062994003646
 30
0.0
 70
    32
  0
VERTEX
  5
118
330
F7
100
AcDbEntity
  8
P-PIPE-____-OTLN
100
AcDbVertex
100
AcDb3dPolylineVertex
 10
-6307.537754985517
 20
-3341.545304745134
 30
0.0
 70
    32
  0
VERTEX
  5
119
330
F7
100
AcDbEntity
  8
P-PIPE-____-OTLN
100
AcDbVertex
100
AcDb3dPolylineVertex
 10
-6308.988817728828
 20
-3340.063587435992
 30
0.0
 70
    32
  0
VERTEX
  5
11A
330
F7
100
AcDbEntity
  8
P-PIPE-____-OTLN
100
AcDbVertex
100
AcDb3dPolylineVertex
 10
-6310.537845116531
 20
-3338.619824529902
 30
0.0
 70
    32
  0
VERTEX
  5
11B
330
F7
100
AcDbEntity
  8
P-PIPE-____-OTLN
100
AcDbVertex
100
AcDb3dPolylineVertex
 10
-6312.182176243348
 20
-3337.215933635237
 30
0.0
 70
    32
  0
VERTEX
  5
11C
330
F7
100
AcDbEntity
  8
P-PIPE-____-OTLN
100
AcDbVertex
100
AcDb3dPolylineVertex
 10
-6313.919058576652
 20
-3335.853775800023
 30
0.0
 70
    32
  0
VERTEX
  5
11D
330
F7
100
AcDbEntity
  8
P-PIPE-____-OTLN
100
AcDbVertex
100
AcDb3dPolylineVertex
 10
-6315.745643204419
 20
-3334.535160557159
 30
0.0
 70
    32
  0
VERTEX
  5
11E
330
F7
100
AcDbEntity
  8
P-PIPE-____-OTLN
100
AcDbVertex
100
AcDb3dPolylineVertex
 10
-6317.65898068097
 20
-3333.261848313887
 30
0.0
 70
    32
  0
VERTEX
  5
11F
330
F7
100
AcDbEntity
  8
P-PIPE-____-OTLN
100
AcDbVertex
100
AcDb3dPolylineVertex
 10
-6319.382819878864
 20
-3332.203310190371
 30
0.0
 70
    32
  0
SEQEND
  5
120
330
F7
100
AcDbEntity
  8
P-PIPE-____-OTLN
  0
POLYLINE
  5
121
330
78
100
AcDbEntity
  8
P-PIPE-____-OTLN
100
AcDb3dPolyline
 66
     1
 10
0.0
 20
0.0
 30
0.0
 70
     8
  0
VERTEX
  5
122
330
121
100
AcDbEntity
  8
P-PIPE-____-OTLN
100
AcDbVertex
100
AcDb3dPolylineVertex
 10
-6423.460157635119
 20
-3332.330503796308
 30
0.0
 70
    32
  0
VERTEX
  5
123
330
121
100
AcDbEntity
  8
P-PIPE-____-OTLN
100
AcDbVertex
100
AcDb3dPolylineVertex
 10
-6424.451387706189
 20
-3332.926158047298
 30
0.0
 70
    32
  0
VERTEX
  5
124
330
121
100
AcDbEntity
  8
P-PIPE-____-OTLN
100
AcDbVertex
100
AcDb3dPolylineVertex
 10
-6426.38762161861
 20
-3334.186947254136
 30
0.0
 70
    32
  0
VERTEX
  5
125
330
121
100
AcDbEntity
  8
P-PIPE-____-OTLN
100
AcDbVertex
100
AcDb3dPolylineVertex
 10
-6428.237916432213
 20
-3335.493506271305
 30
0.0
 70
    32
  0
VERTEX
  5
126
330
121
100
AcDbEntity
  8
P-PIPE-____-OTLN
100
AcDbVertex
100
AcDb3dPolylineVertex
 10
-6429.999294972664
 20
-3336.844087823417
 30
0.0
 70
    32
  0
VERTEX
  5
127
330
121
100
AcDbEntity
  8
P-PIPE-____-OTLN
100
AcDbVertex
100
AcDb3dPolylineVertex
 10
-6431.668881567346
 20
-3338.236895775748
 30
0.0
 70
    32
  0
VERTEX
  5
128
330
121
100
AcDbEntity
  8
P-PIPE-____-OTLN
100
AcDbVertex
100
AcDb3dPolylineVertex
 10
-6433.243898121912
 20
-3339.670083360174
 30
0.0
 70
    32
  0
VERTEX
  5
129
330
121
100
AcDbEntity
  8
P-PIPE-____-OTLN
100
AcDbVertex
100
AcDb3dPolylineVertex
 10
-6434.721659481795
 20
-3341.141748905533
 30
0.0
 70
    32
  0
VERTEX
  5
12A
330
121
100
AcDbEntity
  8
P-PIPE-____-OTLN
100
AcDbVertex
100
AcDb3dPolylineVertex
 10
-6436.099568607428
 20
-3342.649928481575
 30
0.0
 70
    32
  0
VERTEX
  5
12B
330
121
100
AcDbEntity
  8
P-PIPE-____-OTLN
100
AcDbVertex
100
AcDb3dPolylineVertex
 10
-6437.375112387036
 20
-3344.192584927815
 30
0.0
 70
    32
  0
VERTEX
  5
12C
330
121
100
AcDbEntity
  8
P-PIPE-____-OTLN
100
AcDbVertex
100
AcDb3dPolylineVertex
 10
-6438.545859254306
 20
-3345.767592930903
 30
0.0
 70
    32
  0
VERTEX
  5
12D
330
121
100
AcDbEntity
  8
P-PIPE-____-OTLN
100
AcDbVertex
100
AcDb3dPolylineVertex
 10
-6439.609460127281
 20
-3347.372720188268
 30
0.0
 70
    32
  0
VERTEX
  5
12E
330
121
100
AcDbEntity
  8
P-PIPE-____-OTLN
100
AcDbVertex
100
AcDb3dPolylineVertex
 10
-6440.56365445859
 20
-3349.005605293085
 30
0.0
 70
    32
  0
VERTEX
  5
12F
330
121
100
AcDbEntity
  8
P-PIPE-____-OTLN
100
AcDbVertex
100
AcDb3dPolylineVertex
 10
-6441.406283264388
 20
-3350.663733800808
 30
0.0
 70
    32
  0
VERTEX
  5
130
330
121
100
AcDbEntity
  8
P-PIPE-____-OTLN
100
AcDbVertex
100
AcDb3dPolylineVertex
 10
-6442.135310730179
 20
-3352.344414924852
 30
0.0
 70
    32
  0
VERTEX
  5
131
330
121
100
AcDbEntity
  8
P-PIPE-____-OTLN
100
AcDbVertex
100
AcDb3dPolylineVertex
 10
-6442.748855235101
 20
-3354.044762292006
 30
0.0
 70
    32
  0
VERTEX
  5
132
330
121
100
AcDbEntity
  8
P-PIPE-____-OTLN
100
AcDbVertex
100
AcDb3dPolylineVertex
 10
-6443.245229326601
 20
-3355.761682889305
 30
0.0
 70
    32
  0
VERTEX
  5
133
330
121
100
AcDbEntity
  8
P-PIPE-____-OTLN
100
AcDbVertex
100
AcDb3dPolylineVertex
 10
-6443.62298640612
 20
-3357.491878407645
 30
0.0
 70
    32
  0
VERTEX
  5
134
330
121
100
AcDbEntity
  8
P-PIPE-____-OTLN
100
AcDbVertex
100
AcDb3dPolylineVertex
 10
-6443.880969961542
 20
-3359.23186232439
 30
0.0
 70
    32
  0
VERTEX
  5
135
330
121
100
AcDbEntity
  8
P-PIPE-____-OTLN
100
AcDbVertex
100
AcDb3dPolylineVertex
 10
-6444.018359614002
 20
-3360.977994153576
 30
0.0
 70
    32
  0
VERTEX
  5
136
330
121
100
AcDbEntity
  8
P-PIPE-____-OTLN
100
AcDbVertex
100
AcDb3dPolylineVertex
 10
-6444.034707616023
 20
-3362.726529551262
 30
0.0
 70
    32
  0
VERTEX
  5
137
330
121
100
AcDbEntity
  8
P-PIPE-____-OTLN
100
AcDbVertex
100
AcDb3dPolylineVertex
 10
-6443.929960168755
 20
-3364.47368198928
 30
0.0
 70
    32
  0
VERTEX
  5
138
330
121
100
AcDbEntity
  8
P-PIPE-____-OTLN
100
AcDbVertex
100
AcDb3dPolylineVertex
 10
-6443.704460051096
 20
-3366.215689322021
 30
0.0
 70
    32
  0
VERTEX
  5
139
330
121
100
AcDbEntity
  8
P-PIPE-____-OTLN
100
AcDbVertex
100
AcDb3dPolylineVertex
 10
-6443.358930117613
 20
-3367.948877511522
 30
0.0
 70
    32
  0
VERTEX
  5
13A
330
121
100
AcDbEntity
  8
P-PIPE-____-OTLN
100
AcDbVertex
100
AcDb3dPolylineVertex
 10
-6442.894440408323
 20
-3369.669714394772
 30
0.0
 70
    32
  0
VERTEX
  5
13B
330
121
100
AcDbEntity
  8
P-PIPE-____-OTLN
100
AcDbVertex
100
AcDb3dPolylineVertex
 10
-6442.312364056073
 20
-3371.3748484688
 30
0.0
 70
    32
  0
VERTEX
  5
13C
330
121
100
AcDbEntity
  8
P-PIPE-____-OTLN
100
AcDbVertex
100
AcDb3dPolylineVertex
 10
-6441.61432830138
 20
-3373.06113056918
 30
0.0
 70
    32
  0
VERTEX
  5
13D
330
121
100
AcDbEntity
  8
P-PIPE-____-OTLN
100
AcDbVertex
100
AcDb3dPolylineVertex
 10
-6440.802166632391
 20
-3374.725619193662
 30
0.0
 70
    32
  0
VERTEX
  5
13E
330
121
100
AcDbEntity
  8
P-PIPE-____-OTLN
100
AcDbVertex
100
AcDb3dPolylineVertex
 10
-6439.877876697149
 20
-3376.365572397835
 30
0.0
 70
    32
  0
VERTEX
  5
13F
330
121
100
AcDbEntity
  8
P-PIPE-____-OTLN
100
AcDbVertex
100
AcDb3dPolylineVertex
 10
-6438.843586750188
 20
-3377.978430337071
 30
0.0
 70
    32
  0
VERTEX
  5
140
330
121
100
AcDbEntity
  8
P-PIPE-____-OTLN
100
AcDbVertex
100
AcDb3dPolylineVertex
 10
-6437.701531542842
 20
-3379.561792682933
 30
0.0
 70
    32
  0
VERTEX
  5
141
330
121
100
AcDbEntity
  8
P-PIPE-____-OTLN
100
AcDbVertex
100
AcDb3dPolylineVertex
 10
-6436.454037114998
 20
-3381.113394575389
 30
0.0
 70
    32
  0
VERTEX
  5
142
330
121
100
AcDbEntity
  8
P-PIPE-____-OTLN
100
AcDbVertex
100
AcDb3dPolylineVertex
 10
-6435.103513041558
 20
-3382.631083833902
 30
0.0
 70
    32
  0
VERTEX
  5
143
330
121
100
AcDbEntity
  8
P-PIPE-____-OTLN
100
AcDbVertex
100
AcDb3dPolylineVertex
 10
-6433.652450298247
 20
-3384.112801143044
 30
0.0
 70
    32
  0
VERTEX
  5
144
330
121
100
AcDbEntity
  8
P-PIPE-____-OTLN
100
AcDbVertex
100
AcDb3dPolylineVertex
 10
-6432.103422910542
 20
-3385.556564049134
 30
0.0
 70
    32
  0
VERTEX
  5
145
330
121
100
AcDbEntity
  8
P-PIPE-____-OTLN
100
AcDbVertex
100
AcDb3dPolylineVertex
 10
-6430.459091783728
 20
-3386.960454943799
 30
0.0
 70
    32
  0
VERTEX
  5
146
330
121
100
AcDbEntity
  8
P-PIPE-____-OTLN
100
AcDbVertex
100
AcDb3dPolylineVertex
 10
-6428.722209450424
 20
-3388.322612779012
 30
0.0
 70
    32
  0
VERTEX
  5
147
330
121
100
AcDbEntity
  8
P-PIPE-____-OTLN
100
AcDbVertex
100
AcDb3dPolylineVertex
 10
-6426.895624822654
 20
-3389.641228021876
 30
0.0
 70
    32
  0
VERTEX
  5
148
330
121
100
AcDbEntity
  8
P-PIPE-____-OTLN
100
AcDbVertex
100
AcDb3dPolylineVertex
 10
-6424.982287346105
 20
-3390.914540265149
 30
0.0
 70
    32
  0
VERTEX
  5
149
330
121
100
AcDbEntity
  8
P-PIPE-____-OTLN
100
AcDbVertex
100
AcDb3dPolylineVertex
 10
-6422.985250202609
 20
-3392.140837911155
 30
0.0
 70
    32
  0
VERTEX
  5
14A
330
121
100
AcDbEntity
  8
P-PIPE-____-OTLN
100
AcDbVertex
100
AcDb3dPolylineVertex
 10
-6420.907672390313
 20
-3393.318459401517
 30
0.0
 70
    32
  0
VERTEX
  5
14B
330
121
100
AcDbEntity
  8
P-PIPE-____-OTLN
100
AcDbVertex
100
AcDb3dPolylineVertex
 10
-6418.752819636897
 20
-3394.445795544008
 30
0.0
 70
    32
  0
VERTEX
  5
14C
330
121
100
AcDbEntity
  8
P-PIPE-____-OTLN
100
AcDbVertex
100
AcDb3dPolylineVertex
 10
-6416.524064181344
 20
-3395.521292571906
 30
0.0
 70
    32
  0
VERTEX
  5
14D
330
121
100
AcDbEntity
  8
P-PIPE-____-OTLN
100
AcDbVertex
100
AcDb3dPolylineVertex
 10
-6414.224883505872
 20
-3396.543455650118
 30
0.0
 70
    32
  0
VERTEX
  5
14E
330
121
100
AcDbEntity
  8
P-PIPE-____-OTLN
100
AcDbVertex
100
AcDb3dPolylineVertex
 10
-6411.858858122158
 20
-3397.51085261064
 30
0.0
 70
    32
  0
VERTEX
  5
14F
330
121
100
AcDbEntity
  8
P-PIPE-____-OTLN
100
AcDbVertex
100
AcDb3dPolylineVertex
 10
-6409.429668522874
 20
-3398.422117756354
 30
0.0
 70
    32
  0
VERTEX
  5
150
330
121
100
AcDbEntity
  8
P-PIPE-____-OTLN
100
AcDbVertex
100
AcDb3dPolylineVertex
 10
-6406.941091407187
 20
-3399.275955616905
 30
0.0
 70
    32
  0
VERTEX
  5
151
330
121
100
AcDbEntity
  8
P-PIPE-____-OTLN
100
AcDbVertex
100
AcDb3dPolylineVertex
 10
-6404.396995281048
 20
-3400.071144574888
 30
0.0
 70
    32
  0
VERTEX
  5
152
330
121
100
AcDbEntity
  8
P-PIPE-____-OTLN
100
AcDbVertex
100
AcDb3dPolylineVertex
 10
-6401.801335523028
 20
-3400.806540306531
 30
0.0
 70
    32
  0
VERTEX
  5
153
330
121
100
AcDbEntity
  8
P-PIPE-____-OTLN
100
AcDbVertex
100
AcDb3dPolylineVertex
 10
-6399.158148995514
 20
-3401.481079000075
 30
0.0
 70
    32
  0
VERTEX
  5
154
330
121
100
AcDbEntity
  8
P-PIPE-____-OTLN
100
AcDbVertex
100
AcDb3dPolylineVertex
 10
-6396.471548270719
 20
-3402.093780328812
 30
0.0
 70
    32
  0
VERTEX
  5
155
330
121
100
AcDbEntity
  8
P-PIPE-____-OTLN
100
AcDbVertex
100
AcDb3dPolylineVertex
 10
-6393.745715531256
 20
-3402.643750165317
 30
0.0
 70
    32
  0
VERTEX
  5
156
330
121
100
AcDbEntity
  8
P-PIPE-____-OTLN
100
AcDbVertex
100
AcDb3dPolylineVertex
 10
-6390.984896196744
 20
-3403.130183030055
 30
0.0
 70
    32
  0
VERTEX
  5
157
330
121
100
AcDbEntity
  8
P-PIPE-____-OTLN
100
AcDbVertex
100
AcDb3dPolylineVertex
 10
-6388.193392320644
 20
-3403.552364271844
 30
0.0
 70
    32
  0
VERTEX
  5
158
330
121
100
AcDbEntity
  8
P-PIPE-____-OTLN
100
AcDbVertex
100
AcDb3dPolylineVertex
 10
-6385.375555795549
 20
-3403.909671980444
 30
0.0
 70
    32
  0
VERTEX
  5
159
330
121
100
AcDbEntity
  8
P-PIPE-____-OTLN
100
AcDbVertex
100
AcDb3dPolylineVertex
 10
-6382.535781400182
 20
-3404.201578633108
 30
0.0
 70
    32
  0
VERTEX
  5
15A
330
121
100
AcDbEntity
  8
P-PIPE-____-OTLN
100
AcDbVertex
100
AcDb3dPolylineVertex
 10
-6379.678499717385
 20
-3404.427652477706
 30
0.0
 70
    32
  0
VERTEX
  5
15B
330
121
100
AcDbEntity
  8
P-PIPE-____-OTLN
100
AcDbVertex
100
AcDb3dPolylineVertex
 10
-6376.80816994916
 20
-3404.587558655288
 30
0.0
 70
    32
  0
VERTEX
  5
15C
330
121
100
AcDbEntity
  8
P-PIPE-____-OTLN
100
AcDbVertex
100
AcDb3dPolylineVertex
 10
-6373.929272652425
 20
-3404.681060064748
 30
0.0
 70
    32
  0
VERTEX
  5
15D
330
121
100
AcDbEntity
  8
P-PIPE-____-OTLN
100
AcDbVertex
100
AcDb3dPolylineVertex
 10
-6371.046302417227
 20
-3404.708017971883
 30
0.0
 70
    32
  0
VERTEX
  5
15E
330
121
100
AcDbEntity
  8
P-PIPE-____-OTLN
100
AcDbVertex
100
AcDb3dPolylineVertex
 10
-6368.163760507903
 20
-3404.668392364533
 30
0.0
 70
    32
  0
VERTEX
  5
15F
330
121
100
AcDbEntity
  8
P-PIPE-____-OTLN
100
AcDbVertex
100
AcDb3dPolylineVertex
 10
-6365.286147486798
 20
-3404.56224205484
 30
0.0
 70
    32
  0
VERTEX
  5
160
330
121
100
AcDbEntity
  8
P-PIPE-____-OTLN
100
AcDbVertex
100
AcDb3dPolylineVertex
 10
-6362.417955839834
 20
-3404.38972452892
 30
0.0
 70
    32
  0
VERTEX
  5
161
330
121
100
AcDbEntity
  8
P-PIPE-____-OTLN
100
AcDbVertex
100
AcDb3dPolylineVertex
 10
-6359.56366262318
 20
-3404.151095543505
 30
0.0
 70
    32
  0
VERTEX
  5
162
330
121
100
AcDbEntity
  8
P-PIPE-____-OTLN
100
AcDbVertex
100
AcDb3dPolylineVertex
 10
-6356.727722150807
 20
-3403.846708468402
 30
0.0
 70
    32
  0
VERTEX
  5
163
330
121
100
AcDbEntity
  8
P-PIPE-____-OTLN
100
AcDbVertex
100
AcDb3dPolylineVertex
 10
-6353.914558743596
 20
-3403.477013372939
 30
0.0
 70
    32
  0
VERTEX
  5
164
330
121
100
AcDbEntity
  8
P-PIPE-____-OTLN
100
AcDbVertex
100
AcDb3dPolylineVertex
 10
-6351.128559562093
 20
-3403.042555854057
 30
0.0
 70
    32
  0
VERTEX
  5
165
330
121
100
AcDbEntity
  8
P-PIPE-____-OTLN
100
AcDbVertex
100
AcDb3dPolylineVertex
 10
-6348.374067546938
 20
-3402.54397560326
 30
0.0
 70
    32
  0
VERTEX
  5
166
330
121
100
AcDbEntity
  8
P-PIPE-____-OTLN
100
AcDbVertex
100
AcDb3dPolylineVertex
 10
-6345.655374493627
 20
-3401.982004709647
 30
0.0
 70
    32
  0
VERTEX
  5
167
330
121
100
AcDbEntity
  8
P-PIPE-____-OTLN
100
AcDbVertex
100
AcDb3dPolylineVertex
 10
-6342.976714291545
 20
-3401.357465696453
 30
0.0
 70
    32
  0
VERTEX
  5
168
330
121
100
AcDbEntity
  8
P-PIPE-____-OTLN
100
AcDbVertex
100
AcDb3dPolylineVertex
 10
-6340.342256361402
 20
-3400.671269289515
 30
0.0
 70
    32
  0
VERTEX
  5
169
330
121
100
AcDbEntity
  8
P-PIPE-____-OTLN
100
AcDbVertex
100
AcDb3dPolylineVertex
 10
-6337.756099330375
 20
-3399.924411917832
 30
0.0
 70
    32
  0
VERTEX
  5
16A
330
121
100
AcDbEntity
  8
P-PIPE-____-OTLN
100
AcDbVertex
100
AcDb3dPolylineVertex
 10
-6335.222264990386
 20
-3399.117972949385
 30
0.0
 70
    32
  0
VERTEX
  5
16B
330
121
100
AcDbEntity
  8
P-PIPE-____-OTLN
100
AcDbVertex
100
AcDb3dPolylineVertex
 10
-6332.744692592528
 20
-3398.253111670147
 30
0.0
 70
    32
  0
VERTEX
  5
16C
330
121
100
AcDbEntity
  8
P-PIPE-____-OTLN
100
AcDbVertex
100
AcDb3dPolylineVertex
 10
-6330.327233539115
 20
-3397.331064021255
 30
0.0
 70
    32
  0
VERTEX
  5
16D
330
121
100
AcDbEntity
  8
P-PIPE-____-OTLN
100
AcDbVertex
100
AcDb3dPolylineVertex
 10
-6327.973646544714
 20
-3396.353139119715
 30
0.0
 70
    32
  0
VERTEX
  5
16E
330
121
100
AcDbEntity
  8
P-PIPE-____-OTLN
100
AcDbVertex
100
AcDb3dPolylineVertex
 10
-6325.6875933481
 20
-3395.320715602537
 30
0.0
 70
    32
  0
VERTEX
  5
16F
330
121
100
AcDbEntity
  8
P-PIPE-____-OTLN
100
AcDbVertex
100
AcDb3dPolylineVertex
 10
-6323.472635067832
 20
-3394.235237854524
 30
0.0
 70
    32
  0
VERTEX
  5
170
330
121
100
AcDbEntity
  8
P-PIPE-____-OTLN
100
AcDbVertex
100
AcDb3dPolylineVertex
 10
-6321.332229304078
 20
-3393.098212207299
 30
0.0
 70
    32
  0
VERTEX
  5
171
330
121
100
AcDbEntity
  8
P-PIPE-____-OTLN
100
AcDbVertex
100
AcDb3dPolylineVertex
 10
-6320.208971745887
 20
-3392.46355166226
 30
0.0
 70
    32
  0
SEQEND
  5
172
330
121
100
AcDbEntity
  8
P-PIPE-____-OTLN
  0
LINE
  5
173
330
78
100
AcDbEntity
  8
P-PIPE-____-OTLN
100
AcDbLine
 10
-6296.349321245649
 20
-3368.761374857174
 30
0.0
 11
-6300.578551839185
 21
-3355.589202334021
 31
0.0
  0
LINE
  5
174
330
78
100
AcDbEntity
  8
P-PIPE-____-OTLN
100
AcDbLine
 10
-6442.062716187891
 20
-3355.589202334023
 30
0.0
 11
-6446.291946781426
 21
-3368.761374857176
 31
0.0
  0
LINE
  5
175
330
78
100
AcDbEntity
  8
P-PIPE-____-OTLN
100
AcDbLine
 10
-6292.279351172213
 20
-3368.126622056551
 30
0.0
 11
-6293.06511754282
 21
-3366.191749138558
 31
0.0
  0
LINE
  5
176
330
78
100
AcDbEntity
  8
P-PIPE-____-OTLN
100
AcDbLine
 10
-6449.576150484256
 20
-3366.19174913856
 30
0.0
 11
-6450.361916854863
 21
-3368.126622056554
 31
0.0
  0
POLYLINE
  5
177
330
78
100
AcDbEntity
  8
P-PIPE-____-OTLN
100
AcDb3dPolyline
 66
     1
 10
0.0
 20
0.0
 30
0.0
 70
     8
  0
VERTEX
  5
178
330
177
100
AcDbEntity
  8
P-PIPE-____-OTLN
100
AcDbVertex
100
AcDb3dPolylineVertex
 10
-6313.164282096255
 20
-3414.493729908243
 30
0.0
 70
    32
  0
VERTEX
  5
179
330
177
100
AcDbEntity
  8
P-PIPE-____-OTLN
100
AcDbVertex
100
AcDb3dPolylineVertex
 10
-6310.869113222939
 20
-3413.114508650708
 30
0.0
 70
    32
  0
VERTEX
  5
17A
330
177
100
AcDbEntity
  8
P-PIPE-____-OTLN
100
AcDbVertex
100
AcDb3dPolylineVertex
 10
-6308.668513527881
 20
-3411.681577983761
 30
0.0
 70
    32
  0
VERTEX
  5
17B
330
177
100
AcDbEntity
  8
P-PIPE-____-OTLN
100
AcDbVertex
100
AcDb3dPolylineVertex
 10
-6306.565987526173
 20
-3410.196911563
 30
0.0
 70
    32
  0
VERTEX
  5
17C
330
177
100
AcDbEntity
  8
P-PIPE-____-OTLN
100
AcDbVertex
100
AcDb3dPolylineVertex
 10
-6304.564915908246
 20
-3408.662541597666
 30
0.0
 70
    32
  0
VERTEX
  5
17D
330
177
100
AcDbEntity
  8
P-PIPE-____-OTLN
100
AcDbVertex
100
AcDb3dPolylineVertex
 10
-6302.668557804508
 20
-3407.080558244735
 30
0.0
 70
    32
  0
VERTEX
  5
17E
330
177
100
AcDbEntity
  8
P-PIPE-____-OTLN
100
AcDbVertex
100
AcDb3dPolylineVertex
 10
-6300.880054095344
 20
-3405.45311091262
 30
0.0
 70
    32
  0
VERTEX
  5
17F
330
177
100
AcDbEntity
  8
P-PIPE-____-OTLN
100
AcDbVertex
100
AcDb3dPolylineVertex
 10
-6299.202431469232
 20
-3403.782412046637
 30
0.0
 70
    32
  0
VERTEX
  5
180
330
177
100
AcDbEntity
  8
P-PIPE-____-OTLN
100
AcDbVertex
100
AcDb3dPolylineVertex
 10
-6297.638606701124
 20
-3402.070743987892
 30
0.0
 70
    32
  0
VERTEX
  5
181
330
177
100
AcDbEntity
  8
P-PIPE-____-OTLN
100
AcDbVertex
100
AcDb3dPolylineVertex
 10
-6296.191390328164
 20
-3400.320469435034
 30
0.0
 70
    32
  0
VERTEX
  5
182
330
177
100
AcDbEntity
  8
P-PIPE-____-OTLN
100
AcDbVertex
100
AcDb3dPolylineVertex
 10
-6294.863488556195
 20
-3398.534045846092
 30
0.0
 70
    32
  0
VERTEX
  5
183
330
177
100
AcDbEntity
  8
P-PIPE-____-OTLN
100
AcDbVertex
100
AcDb3dPolylineVertex
 10
-6293.657501881501
 20
-3396.714043743479
 30
0.0
 70
    32
  0
VERTEX
  5
184
330
177
100
AcDbEntity
  8
P-PIPE-____-OTLN
100
AcDbVertex
100
AcDb3dPolylineVertex
 10
-6292.575918638353
 20
-3394.863168287929
 30
0.0
 70
    32
  0
VERTEX
  5
185
330
177
100
AcDbEntity
  8
P-PIPE-____-OTLN
100
AcDbVertex
100
AcDb3dPolylineVertex
 10
-6291.621101605683
 20
-3392.984282662053
 30
0.0
 70
    32
  0
VERTEX
  5
186
330
177
100
AcDbEntity
  8
P-PIPE-____-OTLN
100
AcDbVertex
100
AcDb3dPolylineVertex
 10
-6290.795266075219
 20
-3391.080430816729
 30
0.0
 70
    32
  0
VERTEX
  5
187
330
177
100
AcDbEntity
  8
P-PIPE-____-OTLN
100
AcDbVertex
100
AcDb3dPolylineVertex
 10
-6290.100448540078
 20
-3389.154856150715
 30
0.0
 70
    32
  0
VERTEX
  5
188
330
177
100
AcDbEntity
  8
P-PIPE-____-OTLN
100
AcDbVertex
100
AcDb3dPolylineVertex
 10
-6289.538466472318
 20
-3387.211011992611
 30
0.0
 70
    32
  0
VERTEX
  5
189
330
177
100
AcDbEntity
  8
P-PIPE-____-OTLN
100
AcDbVertex
100
AcDb3dPolylineVertex
 10
-6289.11087142927
 20
-3385.252559680809
 30
0.0
 70
    32
  0
VERTEX
  5
18A
330
177
100
AcDbEntity
  8
P-PIPE-____-OTLN
100
AcDbVertex
100
AcDb3dPolylineVertex
 10
-6288.818899653156
 20
-3383.283350900119
 30
0.0
 70
    32
  0
VERTEX
  5
18B
330
177
100
AcDbEntity
  8
P-PIPE-____-OTLN
100
AcDbVertex
100
AcDb3dPolylineVertex
 10
-6288.663425896745
 20
-3381.307392847394
 30
0.0
 70
    32
  0
VERTEX
  5
18C
330
177
100
AcDbEntity
  8
P-PIPE-____-OTLN
100
AcDbVertex
100
AcDb3dPolylineVertex
 10
-6288.644926838223
 20
-3379.328797539503
 30
0.0
 70
    32
  0
VERTEX
  5
18D
330
177
100
AcDbEntity
  8
P-PIPE-____-OTLN
100
AcDbVertex
100
AcDb3dPolylineVertex
 10
-6288.763459717673
 20
-3377.351719551394
 30
0.0
 70
    32
  0
VERTEX
  5
18E
330
177
100
AcDbEntity
  8
P-PIPE-____-OTLN
100
AcDbVertex
100
AcDb3dPolylineVertex
 10
-6289.018659702446
 20
-3375.380288860507
 30
0.0
 70
    32
  0
VERTEX
  5
18F
330
177
100
AcDbEntity
  8
P-PIPE-____-OTLN
100
AcDbVertex
100
AcDb3dPolylineVertex
 10
-6289.409756424515
 20
-3373.418546533237
 30
0.0
 70
    32
  0
VERTEX
  5
190
330
177
100
AcDbEntity
  8
P-PIPE-____-OTLN
100
AcDbVertex
100
AcDb3dPolylineVertex
 10
-6289.935606946731
 20
-3371.470390370462
 30
0.0
 70
    32
  0
VERTEX
  5
191
330
177
100
AcDbEntity
  8
P-PIPE-____-OTLN
100
AcDbVertex
100
AcDb3dPolylineVertex
 10
-6290.594739972038
 20
-3369.539535537505
 30
0.0
 70
    32
  0
VERTEX
  5
192
330
177
100
AcDbEntity
  8
P-PIPE-____-OTLN
100
AcDbVertex
100
AcDb3dPolylineVertex
 10
-6291.385404985674
 20
-3367.629492303857
 30
0.0
 70
    32
  0
VERTEX
  5
193
330
177
100
AcDbEntity
  8
P-PIPE-____-OTLN
100
AcDbVertex
100
AcDb3dPolylineVertex
 10
-6292.305620312436
 20
-3365.74356014185
 30
0.0
 70
    32
  0
VERTEX
  5
194
330
177
100
AcDbEntity
  8
P-PIPE-____-OTLN
100
AcDbVertex
100
AcDb3dPolylineVertex
 10
-6293.353215441483
 20
-3363.884835258313
 30
0.0
 70
    32
  0
VERTEX
  5
195
330
177
100
AcDbEntity
  8
P-PIPE-____-OTLN
100
AcDbVertex
100
AcDb3dPolylineVertex
 10
-6294.525864856274
 20
-3362.056227485892
 30
0.0
 70
    32
  0
VERTEX
  5
196
330
177
100
AcDbEntity
  8
P-PIPE-____-OTLN
100
AcDbVertex
100
AcDb3dPolylineVertex
 10
-6295.821112459841
 20
-3360.260482306735
 30
0.0
 70
    32
  0
VERTEX
  5
197
330
177
100
AcDbEntity
  8
P-PIPE-____-OTLN
100
AcDbVertex
100
AcDb3dPolylineVertex
 10
-6297.236387137142
 20
-3358.5002043481
 30
0.0
 70
    32
  0
VERTEX
  5
198
330
177
100
AcDbEntity
  8
P-PIPE-____-OTLN
100
AcDbVertex
100
AcDb3dPolylineVertex
 10
-6298.769010900667
 20
-3356.777879627716
 30
0.0
 70
    32
  0
VERTEX
  5
199
330
177
100
AcDbEntity
  8
P-PIPE-____-OTLN
100
AcDbVertex
100
AcDb3dPolylineVertex
 10
-6299.416499269558
 20
-3356.116714112714
 30
0.0
 70
    32
  0
SEQEND
  5
19A
330
177
100
AcDbEntity
  8
P-PIPE-____-OTLN
  0
LINE
  5
19B
330
78
100
AcDbEntity
  8
P-PIPE-____-OTLN
100
AcDbLine
 10
-6286.150373481479
 20
-3383.218630816906
 30
0.0
 11
-6291.425427034462
 21
-3370.2293268171
 31
0.0
  0
LINE
  5
19C
330
78
100
AcDbEntity
  8
P-PIPE-____-OTLN
100
AcDbLine
 10
-6451.215840992613
 20
-3370.229326817103
 30
0.0
 11
-6456.490894545595
 21
-3383.218630816909
 31
0.0
  0
LINE
  5
19D
330
78
100
AcDbEntity
  8
P-PIPE-____-OTLN
100
AcDbLine
 10
-6279.844577911256
 20
-3378.863152442452
 30
0.0
 11
-6280.920645403819
 21
-3377.032783040993
 31
0.0
  0
LINE
  5
19E
330
78
100
AcDbEntity
  8
P-PIPE-____-OTLN
100
AcDbLine
 10
-6461.720622623257
 20
-3377.032783040995
 30
0.0
 11
-6462.796690115819
 21
-3378.863152442455
 31
0.0
  0
POLYLINE
  5
19F
330
78
100
AcDbEntity
  8
P-PIPE-____-OTLN
100
AcDb3dPolyline
 66
     1
 10
0.0
 20
0.0
 30
0.0
 70
     8
  0
VERTEX
  5
1A0
330
19F
100
AcDbEntity
  8
P-PIPE-____-OTLN
100
AcDbVertex
100
AcDb3dPolylineVertex
 10
-6294.417730950118
 20
-3433.640212744791
 30
0.0
 70
    32
  0
VERTEX
  5
1A1
330
19F
100
AcDbEntity
  8
P-PIPE-____-OTLN
100
AcDbVertex
100
AcDb3dPolylineVertex
 10
-6292.046760420161
 20
-3431.82096122713
 30
0.0
 70
    32
  0
VERTEX
  5
1A2
330
19F
100
AcDbEntity
  8
P-PIPE-____-OTLN
100
AcDbVertex
100
AcDb3dPolylineVertex
 10
-6289.800530456292
 20
-3429.945781536257
 30
0.0
 70
    32
  0
VERTEX
  5
1A3
330
19F
100
AcDbEntity
  8
P-PIPE-____-OTLN
100
AcDbVertex
100
AcDb3dPolylineVertex
 10
-6287.682742105394
 20
-3428.017292018068
 30
0.0
 70
    32
  0
VERTEX
  5
1A4
330
19F
100
AcDbEntity
  8
P-PIPE-____-OTLN
100
AcDbVertex
100
AcDb3dPolylineVertex
 10
-6285.696949363686
 20
-3426.038186679424
 30
0.0
 70
    32
  0
VERTEX
  5
1A5
330
19F
100
AcDbEntity
  8
P-PIPE-____-OTLN
100
AcDbVertex
100
AcDb3dPolylineVertex
 10
-6283.846562608875
 20
-3424.011241305386
 30
0.0
 70
    32
  0
VERTEX
  5
1A6
330
19F
100
AcDbEntity
  8
P-PIPE-____-OTLN
100
AcDbVertex
100
AcDb3dPolylineVertex
 10
-6282.134851475398
 20
-3421.939323164224
 30
0.0
 70
    32
  0
VERTEX
  5
1A7
330
19F
100
AcDbEntity
  8
P-PIPE-____-OTLN
100
AcDbVertex
100
AcDb3dPolylineVertex
 10
-6280.564946004535
 20
-3419.825404636389
 30
0.0
 70
    32
  0
VERTEX
  5
1A8
330
19F
100
AcDbEntity
  8
P-PIPE-____-OTLN
100
AcDbVertex
100
AcDb3dPolylineVertex
 10
-6279.139834552259
 20
-3417.672580727834
 30
0.0
 70
    32
  0
VERTEX
  5
1A9
330
19F
100
AcDbEntity
  8
P-PIPE-____-OTLN
100
AcDbVertex
100
AcDb3dPolylineVertex
 10
-6277.862356664895
 20
-3415.484089828836
 30
0.0
 70
    32
  0
VERTEX
  5
1AA
330
19F
100
AcDbEntity
  8
P-PIPE-____-OTLN
100
AcDbVertex
100
AcDb3dPolylineVertex
 10
-6276.735189057414
 20
-3413.263336252625
 30
0.0
 70
    32
  0
VERTEX
  5
1AB
330
19F
100
AcDbEntity
  8
P-PIPE-____-OTLN
100
AcDbVertex
100
AcDb3dPolylineVertex
 10
-6275.760823101798
 20
-3411.013912099972
 30
0.0
 70
    32
  0
VERTEX
  5
1AC
330
19F
100
AcDbEntity
  8
P-PIPE-____-OTLN
100
AcDbVertex
100
AcDb3dPolylineVertex
 10
-6274.941532993789
 20
-3408.739615014046
 30
0.0
 70
    32
  0
VERTEX
  5
1AD
330
19F
100
AcDbEntity
  8
P-PIPE-____-OTLN
100
AcDbVertex
100
AcDb3dPolylineVertex
 10
-6274.279335080324
 20
-3406.444457692371
 30
0.0
 70
    32
  0
VERTEX
  5
1AE
330
19F
100
AcDbEntity
  8
P-PIPE-____-OTLN
100
AcDbVertex
100
AcDb3dPolylineVertex
 10
-6273.775940604009
 20
-3404.13266495596
 30
0.0
 70
    32
  0
VERTEX
  5
1AF
330
19F
100
AcDbEntity
  8
P-PIPE-____-OTLN
100
AcDbVertex
100
AcDb3dPolylineVertex
 10
-6273.432706044921
 20
-3401.808655047273
 30
0.0
 70
    32
  0
VERTEX
  5
1B0
330
19F
100
AcDbEntity
  8
P-PIPE-____-OTLN
100
AcDbVertex
100
AcDb3dPolylineVertex
 10
-6273.250586802771
 20
-3399.477003750701
 30
0.0
 70
    32
  0
VERTEX
  5
1B1
330
19F
100
AcDbEntity
  8
P-PIPE-____-OTLN
100
AcDbVertex
100
AcDb3dPolylineVertex
 10
-6273.230100582813
 20
-3397.142392675147
 30
0.0
 70
    32
  0
VERTEX
  5
1B2
330
19F
100
AcDbEntity
  8
P-PIPE-____-OTLN
100
AcDbVertex
100
AcDb3dPolylineVertex
 10
-6273.371306105918
 20
-3394.809546011258
 30
0.0
 70
    32
  0
VERTEX
  5
1B3
330
19F
100
AcDbEntity
  8
P-PIPE-____-OTLN
100
AcDbVertex
100
AcDb3dPolylineVertex
 10
-6273.673800627729
 20
-3392.483162456127
 30
0.0
 70
    32
  0
VERTEX
  5
1B4
330
19F
100
AcDbEntity
  8
P-PIPE-____-OTLN
100
AcDbVertex
100
AcDb3dPolylineVertex
 10
-6274.136736682795
 20
-3390.167850044495
 30
0.0
 70
    32
  0
VERTEX
  5
1B5
330
19F
100
AcDbEntity
  8
P-PIPE-____-OTLN
100
AcDbVertex
100
AcDb3dPolylineVertex
 10
-6274.758855286098
 20
-3387.868070992984
 30
0.0
 70
    32
  0
VERTEX
  5
1B6
330
19F
100
AcDbEntity
  8
P-PIPE-____-OTLN
100
AcDbVertex
100
AcDb3dPolylineVertex
 10
-6275.538530390663
 20
-3385.588101562306
 30
0.0
 70
    32
  0
VERTEX
  5
1B7
330
19F
100
AcDbEntity
  8
P-PIPE-____-OTLN
100
AcDbVertex
100
AcDb3dPolylineVertex
 10
-6276.473818287758
 20
-3383.332009039144
 30
0.0
 70
    32
  0
VERTEX
  5
1B8
330
19F
100
AcDbEntity
  8
P-PIPE-____-OTLN
100
AcDbVertex
100
AcDb3dPolylineVertex
 10
-6277.562505938989
 20
-3381.103645066711
 30
0.0
 70
    32
  0
VERTEX
  5
1B9
330
19F
100
AcDbEntity
  8
P-PIPE-____-OTLN
100
AcDbVertex
100
AcDb3dPolylineVertex
 10
-6278.802153606656
 20
-3378.906652385509
 30
0.0
 70
    32
  0
VERTEX
  5
1BA
330
19F
100
AcDbEntity
  8
P-PIPE-____-OTLN
100
AcDbVertex
100
AcDb3dPolylineVertex
 10
-6280.190129035531
 20
-3376.744480907284
 30
0.0
 70
    32
  0
VERTEX
  5
1BB
330
19F
100
AcDbEntity
  8
P-PIPE-____-OTLN
100
AcDbVertex
100
AcDb3dPolylineVertex
 10
-6281.723632289581
 20
-3374.620408898489
 30
0.0
 70
    32
  0
VERTEX
  5
1BC
330
19F
100
AcDbEntity
  8
P-PIPE-____-OTLN
100
AcDbVertex
100
AcDb3dPolylineVertex
 10
-6283.399711794456
 20
-3372.537565620946
 30
0.0
 70
    32
  0
VERTEX
  5
1BD
330
19F
100
AcDbEntity
  8
P-PIPE-____-OTLN
100
AcDbVertex
100
AcDb3dPolylineVertex
 10
-6285.21527303623
 20
-3370.498952717297
 30
0.0
 70
    32
  0
VERTEX
  5
1BE
330
19F
100
AcDbEntity
  8
P-PIPE-____-OTLN
100
AcDbVertex
100
AcDb3dPolylineVertex
 10
-6287.167081751517
 20
-3368.507462635835
 30
0.0
 70
    32
  0
VERTEX
  5
1BF
330
19F
100
AcDbEntity
  8
P-PIPE-____-OTLN
100
AcDbVertex
100
AcDb3dPolylineVertex
 10
-6289.251763442325
 20
-3366.56589326682
 30
0.0
 70
    32
  0
VERTEX
  5
1C0
330
19F
100
AcDbEntity
  8
P-PIPE-____-OTLN
100
AcDbVertex
100
AcDb3dPolylineVertex
 10
-6291.465800813141
 20
-3364.67695862101
 30
0.0
 70
    32
  0
VERTEX
  5
1C1
330
19F
100
AcDbEntity
  8
P-PIPE-____-OTLN
100
AcDbVertex
100
AcDb3dPolylineVertex
 10
-6293.805530388937
 20
-3362.84329581065
 30
0.0
 70
    32
  0
VERTEX
  5
1C2
330
19F
100
AcDbEntity
  8
P-PIPE-____-OTLN
100
AcDbVertex
100
AcDb3dPolylineVertex
 10
-6294.278268000087
 20
-3362.502258601839
 30
0.0
 70
    32
  0
SEQEND
  5
1C3
330
19F
100
AcDbEntity
  8
P-PIPE-____-OTLN
  0
POLYLINE
  5
1C4
330
78
100
AcDbEntity
  8
P-PIPE-____-OTLN
100
AcDb3dPolyline
 66
     1
 10
0.0
 20
0.0
 30
0.0
 70
     8
  0
VERTEX
  5
1C5
330
1C4
100
AcDbEntity
  8
P-PIPE-____-OTLN
100
AcDbVertex
100
AcDb3dPolylineVertex
 10
-6448.223537076955
 20
-3433.640212744793
 30
0.0
 70
    32
  0
VERTEX
  5
1C6
330
1C4
100
AcDbEntity
  8
P-PIPE-____-OTLN
100
AcDbVertex
100
AcDb3dPolylineVertex
 10
-6450.594507606911
 20
-3431.820961227133
 30
0.0
 70
    32
  0
VERTEX
  5
1C7
330
1C4
100
AcDbEntity
  8
P-PIPE-____-OTLN
100
AcDbVertex
100
AcDb3dPolylineVertex
 10
-6452.84073757078
 20
-3429.945781536259
 30
0.0
 70
    32
  0
VERTEX
  5
1C8
330
1C4
100
AcDbEntity
  8
P-PIPE-____-OTLN
100
AcDbVertex
100
AcDb3dPolylineVertex
 10
-6454.958525921679
 20
-3428.017292018069
 30
0.0
 70
    32
  0
VERTEX
  5
1C9
330
1C4
100
AcDbEntity
  8
P-PIPE-____-OTLN
100
AcDbVertex
100
AcDb3dPolylineVertex
 10
-6456.944318663388
 20
-3426.038186679425
 30
0.0
 70
    32
  0
VERTEX
  5
1CA
330
1C4
100
AcDbEntity
  8
P-PIPE-____-OTLN
100
AcDbVertex
100
AcDb3dPolylineVertex
 10
-6458.794705418199
 20
-3424.011241305389
 30
0.0
 70
    32
  0
VERTEX
  5
1CB
330
1C4
100
AcDbEntity
  8
P-PIPE-____-OTLN
100
AcDbVertex
100
AcDb3dPolylineVertex
 10
-6460.506416551675
 20
-3421.939323164226
 30
0.0
 70
    32
  0
VERTEX
  5
1CC
330
1C4
100
AcDbEntity
  8
P-PIPE-____-OTLN
100
AcDbVertex
100
AcDb3dPolylineVertex
 10
-6462.076322022539
 20
-3419.825404636391
 30
0.0
 70
    32
  0
VERTEX
  5
1CD
330
1C4
100
AcDbEntity
  8
P-PIPE-____-OTLN
100
AcDbVertex
100
AcDb3dPolylineVertex
 10
-6463.501433474814
 20
-3417.672580727837
 30
0.0
 70
    32
  0
VERTEX
  5
1CE
330
1C4
100
AcDbEntity
  8
P-PIPE-____-OTLN
100
AcDbVertex
100
AcDb3dPolylineVertex
 10
-6464.77891136218
 20
-3415.484089828839
 30
0.0
 70
    32
  0
VERTEX
  5
1CF
330
1C4
100
AcDbEntity
  8
P-PIPE-____-OTLN
100
AcDbVertex
100
AcDb3dPolylineVertex
 10
-6465.906078969661
 20
-3413.263336252628
 30
0.0
 70
    32
  0
VERTEX
  5
1D0
330
1C4
100
AcDbEntity
  8
P-PIPE-____-OTLN
100
AcDbVertex
100
AcDb3dPolylineVertex
 10
-6466.880444925275
 20
-3411.013912099976
 30
0.0
 70
    32
  0
VERTEX
  5
1D1
330
1C4
100
AcDbEntity
  8
P-PIPE-____-OTLN
100
AcDbVertex
100
AcDb3dPolylineVertex
 10
-6467.699735033285
 20
-3408.739615014048
 30
0.0
 70
    32
  0
VERTEX
  5
1D2
330
1C4
100
AcDbEntity
  8
P-PIPE-____-OTLN
100
AcDbVertex
100
AcDb3dPolylineVertex
 10
-6468.361932946748
 20
-3406.444457692374
 30
0.0
 70
    32
  0
VERTEX
  5
1D3
330
1C4
100
AcDbEntity
  8
P-PIPE-____-OTLN
100
AcDbVertex
100
AcDb3dPolylineVertex
 10
-6468.865327423066
 20
-3404.132664955963
 30
0.0
 70
    32
  0
VERTEX
  5
1D4
330
1C4
100
AcDbEntity
  8
P-PIPE-____-OTLN
100
AcDbVertex
100
AcDb3dPolylineVertex
 10
-6469.208561982154
 20
-3401.808655047276
 30
0.0
 70
    32
  0
VERTEX
  5
1D5
330
1C4
100
AcDbEntity
  8
P-PIPE-____-OTLN
100
AcDbVertex
100
AcDb3dPolylineVertex
 10
-6469.390681224303
 20
-3399.477003750704
 30
0.0
 70
    32
  0
VERTEX
  5
1D6
330
1C4
100
AcDbEntity
  8
P-PIPE-____-OTLN
100
AcDbVertex
100
AcDb3dPolylineVertex
 10
-6469.411167444262
 20
-3397.142392675151
 30
0.0
 70
    32
  0
VERTEX
  5
1D7
330
1C4
100
AcDbEntity
  8
P-PIPE-____-OTLN
100
AcDbVertex
100
AcDb3dPolylineVertex
 10
-6469.269961921156
 20
-3394.809546011261
 30
0.0
 70
    32
  0
VERTEX
  5
1D8
330
1C4
100
AcDbEntity
  8
P-PIPE-____-OTLN
100
AcDbVertex
100
AcDb3dPolylineVertex
 10
-6468.967467399346
 20
-3392.483162456129
 30
0.0
 70
    32
  0
VERTEX
  5
1D9
330
1C4
100
AcDbEntity
  8
P-PIPE-____-OTLN
100
AcDbVertex
100
AcDb3dPolylineVertex
 10
-6468.504531344281
 20
-3390.167850044497
 30
0.0
 70
    32
  0
VERTEX
  5
1DA
330
1C4
100
AcDbEntity
  8
P-PIPE-____-OTLN
100
AcDbVertex
100
AcDb3dPolylineVertex
 10
-6467.882412740976
 20
-3387.868070992987
 30
0.0
 70
    32
  0
VERTEX
  5
1DB
330
1C4
100
AcDbEntity
  8
P-PIPE-____-OTLN
100
AcDbVertex
100
AcDb3dPolylineVertex
 10
-6467.102737636412
 20
-3385.588101562309
 30
0.0
 70
    32
  0
VERTEX
  5
1DC
330
1C4
100
AcDbEntity
  8
P-PIPE-____-OTLN
100
AcDbVertex
100
AcDb3dPolylineVertex
 10
-6466.167449739318
 20
-3383.332009039147
 30
0.0
 70
    32
  0
VERTEX
  5
1DD
330
1C4
100
AcDbEntity
  8
P-PIPE-____-OTLN
100
AcDbVertex
100
AcDb3dPolylineVertex
 10
-6465.078762088086
 20
-3381.103645066713
 30
0.0
 70
    32
  0
VERTEX
  5
1DE
330
1C4
100
AcDbEntity
  8
P-PIPE-____-OTLN
100
AcDbVertex
100
AcDb3dPolylineVertex
 10
-6463.839114420418
 20
-3378.906652385512
 30
0.0
 70
    32
  0
VERTEX
  5
1DF
330
1C4
100
AcDbEntity
  8
P-PIPE-____-OTLN
100
AcDbVertex
100
AcDb3dPolylineVertex
 10
-6462.451138991545
 20
-3376.744480907286
 30
0.0
 70
    32
  0
VERTEX
  5
1E0
330
1C4
100
AcDbEntity
  8
P-PIPE-____-OTLN
100
AcDbVertex
100
AcDb3dPolylineVertex
 10
-6460.917635737494
 20
-3374.620408898492
 30
0.0
 70
    32
  0
VERTEX
  5
1E1
330
1C4
100
AcDbEntity
  8
P-PIPE-____-OTLN
100
AcDbVertex
100
AcDb3dPolylineVertex
 10
-6459.241556232619
 20
-3372.537565620949
 30
0.0
 70
    32
  0
VERTEX
  5
1E2
330
1C4
100
AcDbEntity
  8
P-PIPE-____-OTLN
100
AcDbVertex
100
AcDb3dPolylineVertex
 10
-6457.425994990846
 20
-3370.498952717299
 30
0.0
 70
    32
  0
VERTEX
  5
1E3
330
1C4
100
AcDbEntity
  8
P-PIPE-____-OTLN
100
AcDbVertex
100
AcDb3dPolylineVertex
 10
-6455.474186275559
 20
-3368.507462635838
 30
0.0
 70
    32
  0
VERTEX
  5
1E4
330
1C4
100
AcDbEntity
  8
P-PIPE-____-OTLN
100
AcDbVertex
100
AcDb3dPolylineVertex
 10
-6453.389504584752
 20
-3366.565893266823
 30
0.0
 70
    32
  0
VERTEX
  5
1E5
330
1C4
100
AcDbEntity
  8
P-PIPE-____-OTLN
100
AcDbVertex
100
AcDb3dPolylineVertex
 10
-6451.175467213936
 20
-3364.676958621012
 30
0.0
 70
    32
  0
VERTEX
  5
1E6
330
1C4
100
AcDbEntity
  8
P-PIPE-____-OTLN
100
AcDbVertex
100
AcDb3dPolylineVertex
 10
-6448.83573763814
 20
-3362.843295810651
 30
0.0
 70
    32
  0
VERTEX
  5
1E7
330
1C4
100
AcDbEntity
  8
P-PIPE-____-OTLN
100
AcDbVertex
100
AcDb3dPolylineVertex
 10
-6448.304750042527
 20
-3362.46023653369
 30
0.0
 70
    32
  0
SEQEND
  5
1E8
330
1C4
100
AcDbEntity
  8
P-PIPE-____-OTLN
  0
LINE
  5
1E9
330
78
100
AcDbEntity
  8
P-PIPE-____-OTLN
100
AcDbLine
 10
-6271.451251469272
 20
-3393.14003377384
 30
0.0
 11
-6278.774406678929
 21
-3380.683492422536
 31
0.0
  0
LINE
  5
1EA
330
78
100
AcDbEntity
  8
P-PIPE-____-OTLN
100
AcDbLine
 10
-6463.866861348148
 20
-3380.683492422539
 30
0.0
 11
-6471.190016557803
 21
-3393.140033773845
 31
0.0
  0
LINE
  5
1EB
330
78
100
AcDbEntity
  8
P-PIPE-____-OTLN
100
AcDbLine
 10
-6250.250233610191
 20
-3408.811937731641
 30
0.0
 11
-6250.548622015317
 21
-3406.784908770887
 31
0.0
  0
LINE
  5
1EC
330
78
100
AcDbEntity
  8
P-PIPE-____-OTLN
100
AcDbLine
 10
-6492.092646011759
 20
-3406.784908770891
 30
0.0
 11
-6492.391034416884
 21
-3408.811937731645
 31
0.0
  0
POLYLINE
  5
1ED
330
78
100
AcDbEntity
  8
P-PIPE-____-OTLN
100
AcDb3dPolyline
 66
     1
 10
0.0
 20
0.0
 30
0.0
 70
     8
  0
VERTEX
  5
1EE
330
1ED
100
AcDbEntity
  8
P-PIPE-____-OTLN
100
AcDbVertex
100
AcDb3dPolylineVertex
 10
-6284.624237960596
 20
-3466.897181633469
 30
0.0
 70
    32
  0
VERTEX
  5
1EF
330
1ED
100
AcDbEntity
  8
P-PIPE-____-OTLN
100
AcDbVertex
100
AcDb3dPolylineVertex
 10
-6281.210600715839
 20
-3464.845851712173
 30
0.0
 70
    32
  0
VERTEX
  5
1F0
330
1ED
100
AcDbEntity
  8
P-PIPE-____-OTLN
100
AcDbVertex
100
AcDb3dPolylineVertex
 10
-6277.938979942538
 20
-3462.715526963522
 30
0.0
 70
    32
  0
VERTEX
  5
1F1
330
1ED
100
AcDbEntity
  8
P-PIPE-____-OTLN
100
AcDbVertex
100
AcDb3dPolylineVertex
 10
-6274.814593561037
 20
-3460.509296724877
 30
0.0
 70
    32
  0
VERTEX
  5
1F2
330
1ED
100
AcDbEntity
  8
P-PIPE-____-OTLN
100
AcDbVertex
100
AcDb3dPolylineVertex
 10
-6271.842457020396
 20
-3458.230347553661
 30
0.0
 70
    32
  0
VERTEX
  5
1F3
330
1ED
100
AcDbEntity
  8
P-PIPE-____-OTLN
100
AcDbVertex
100
AcDb3dPolylineVertex
 10
-6269.027382947744
 20
-3455.881960774743
 30
0.0
 70
    32
  0
VERTEX
  5
1F4
330
1ED
100
AcDbEntity
  8
P-PIPE-____-OTLN
100
AcDbVertex
100
AcDb3dPolylineVertex
 10
-6266.373981973035
 20
-3453.467511878532
 30
0.0
 70
    32
  0
VERTEX
  5
1F5
330
1ED
100
AcDbEntity
  8
P-PIPE-____-OTLN
100
AcDbVertex
100
AcDb3dPolylineVertex
 10
-6263.886664435871
 20
-3450.990472344955
 30
0.0
 70
    32
  0
VERTEX
  5
1F6
330
1ED
100
AcDbEntity
  8
P-PIPE-____-OTLN
100
AcDbVertex
100
AcDb3dPolylineVertex
 10
-6261.569642450336
 20
-3448.45441448818
 30
0.0
 70
    32
  0
VERTEX
  5
1F7
330
1ED
100
AcDbEntity
  8
P-PIPE-____-OTLN
100
AcDbVertex
100
AcDb3dPolylineVertex
 10
-6259.42693150845
 20
-3445.863019854672
 30
0.0
 70
    32
  0
VERTEX
  5
1F8
330
1ED
100
AcDbEntity
  8
P-PIPE-____-OTLN
100
AcDbVertex
100
AcDb3dPolylineVertex
 10
-6257.462350459
 20
-3443.22009151516
 30
0.0
 70
    32
  0
VERTEX
  5
1F9
330
1ED
100
AcDbEntity
  8
P-PIPE-____-OTLN
100
AcDbVertex
100
AcDb3dPolylineVertex
 10
-6255.679518349292
 20
-3440.529570216944
 30
0.0
 70
    32
  0
VERTEX
  5
1FA
330
1ED
100
AcDbEntity
  8
P-PIPE-____-OTLN
100
AcDbVertex
100
AcDb3dPolylineVertex
 10
-6254.081846343247
 20
-3437.795553765774
 30
0.0
 70
    32
  0
VERTEX
  5
1FB
330
1ED
100
AcDbEntity
  8
P-PIPE-____-OTLN
100
AcDbVertex
100
AcDb3dPolylineVertex
 10
-6252.672522851721
 20
-3435.022318181459
 30
0.0
 70
    32
  0
VERTEX
  5
1FC
330
1ED
100
AcDbEntity
  8
P-PIPE-____-OTLN
100
AcDbVertex
100
AcDb3dPolylineVertex
 10
-6251.454490279821
 20
-3432.214338184024
 30
0.0
 70
    32
  0
VERTEX
  5
1FD
330
1ED
100
AcDbEntity
  8
P-PIPE-____-OTLN
100
AcDbVertex
100
AcDb3dPolylineVertex
 10
-6250.430412552264
 20
-3429.376303584403
 30
0.0
 70
    32
  0
VERTEX
  5
1FE
330
1ED
100
AcDbEntity
  8
P-PIPE-____-OTLN
100
AcDbVertex
100
AcDb3dPolylineVertex
 10
-6249.602633887182
 20
-3426.51312745244
 30
0.0
 70
    32
  0
VERTEX
  5
1FF
330
1ED
100
AcDbEntity
  8
P-PIPE-____-OTLN
100
AcDbVertex
100
AcDb3dPolylineVertex
 10
-6248.973131059755
 20
-3423.629941861572
 30
0.0
 70
    32
  0
VERTEX
  5
200
330
1ED
100
AcDbEntity
  8
P-PIPE-____-OTLN
100
AcDbVertex
100
AcDb3dPolylineVertex
 10
-6248.543463321594
 20
-3420.732077872591
 30
0.0
 70
    32
  0
VERTEX
  5
201
330
1ED
100
AcDbEntity
  8
P-PIPE-____-OTLN
100
AcDbVertex
100
AcDb3dPolylineVertex
 10
-6248.314725709629
 20
-3417.825028332578
 30
0.0
 70
    32
  0
VERTEX
  5
202
330
1ED
100
AcDbEntity
  8
P-PIPE-____-OTLN
100
AcDbVertex
100
AcDb3dPolylineVertex
 10
-6248.287512108591
 20
-3414.914394806161
 30
0.0
 70
    32
  0
VERTEX
  5
203
330
1ED
100
AcDbEntity
  8
P-PIPE-____-OTLN
100
AcDbVertex
100
AcDb3dPolylineVertex
 10
-6248.461893699971
 20
-3412.005822930614
 30
0.0
 70
    32
  0
VERTEX
  5
204
330
1ED
100
AcDbEntity
  8
P-PIPE-____-OTLN
100
AcDbVertex
100
AcDb3dPolylineVertex
 10
-6248.837416305089
 20
-3409.10493287489
 30
0.0
 70
    32
  0
VERTEX
  5
205
330
1ED
100
AcDbEntity
  8
P-PIPE-____-OTLN
100
AcDbVertex
100
AcDb3dPolylineVertex
 10
-6249.413117065402
 20
-3406.21725264209
 30
0.0
 70
    32
  0
VERTEX
  5
206
330
1ED
100
AcDbEntity
  8
P-PIPE-____-OTLN
100
AcDbVertex
100
AcDb3dPolylineVertex
 10
-6250.187557716675
 20
-3403.348161336221
 30
0.0
 70
    32
  0
VERTEX
  5
207
330
1ED
100
AcDbEntity
  8
P-PIPE-____-OTLN
100
AcDbVertex
100
AcDb3dPolylineVertex
 10
-6251.158869270671
 20
-3400.502847422377
 30
0.0
 70
    32
  0
VERTEX
  5
208
330
1ED
100
AcDbEntity
  8
P-PIPE-____-OTLN
100
AcDbVertex
100
AcDb3dPolylineVertex
 10
-6252.324801793584
 20
-3397.686284109506
 30
0.0
 70
    32
  0
VERTEX
  5
209
330
1ED
100
AcDbEntity
  8
P-PIPE-____-OTLN
100
AcDbVertex
100
AcDb3dPolylineVertex
 10
-6253.682773262246
 20
-3394.903221108683
 30
0.0
 70
    32
  0
VERTEX
  5
20A
330
1ED
100
AcDbEntity
  8
P-PIPE-____-OTLN
100
AcDbVertex
100
AcDb3dPolylineVertex
 10
-6255.229912849372
 20
-3392.158189844706
 30
0.0
 70
    32
  0
VERTEX
  5
20B
330
1ED
100
AcDbEntity
  8
P-PIPE-____-OTLN
100
AcDbVertex
100
AcDb3dPolylineVertex
 10
-6256.963095873853
 20
-3389.455518051358
 30
0.0
 70
    32
  0
VERTEX
  5
20C
330
1ED
100
AcDbEntity
  8
P-PIPE-____-OTLN
100
AcDbVertex
100
AcDb3dPolylineVertex
 10
-6258.878969504517
 20
-3386.799349526765
 30
0.0
 70
    32
  0
VERTEX
  5
20D
330
1ED
100
AcDbEntity
  8
P-PIPE-____-OTLN
100
AcDbVertex
100
AcDb3dPolylineVertex
 10
-6260.973969757072
 20
-3384.19366539199
 30
0.0
 70
    32
  0
VERTEX
  5
20E
330
1ED
100
AcDbEntity
  8
P-PIPE-____-OTLN
100
AcDbVertex
100
AcDb3dPolylineVertex
 10
-6263.244331228092
 20
-3381.642304134299
 30
0.0
 70
    32
  0
VERTEX
  5
20F
330
1ED
100
AcDbEntity
  8
P-PIPE-____-OTLN
100
AcDbVertex
100
AcDb3dPolylineVertex
 10
-6265.686091398236
 20
-3379.148978723814
 30
0.0
 70
    32
  0
VERTEX
  5
210
330
1ED
100
AcDbEntity
  8
P-PIPE-____-OTLN
100
AcDbVertex
100
AcDb3dPolylineVertex
 10
-6268.295091337476
 20
-3376.71728997138
 30
0.0
 70
    32
  0
VERTEX
  5
211
330
1ED
100
AcDbEntity
  8
P-PIPE-____-OTLN
100
AcDbVertex
100
AcDb3dPolylineVertex
 10
-6271.06697441057
 20
-3374.350735955978
 30
0.0
 70
    32
  0
VERTEX
  5
212
330
1ED
100
AcDbEntity
  8
P-PIPE-____-OTLN
100
AcDbVertex
100
AcDb3dPolylineVertex
 10
-6273.997184242309
 20
-3372.052717781269
 30
0.0
 70
    32
  0
VERTEX
  5
213
330
1ED
100
AcDbEntity
  8
P-PIPE-____-OTLN
100
AcDbVertex
100
AcDb3dPolylineVertex
 10
-6277.080962851235
 20
-3369.826542157058
 30
0.0
 70
    32
  0
VERTEX
  5
214
330
1ED
100
AcDbEntity
  8
P-PIPE-____-OTLN
100
AcDbVertex
100
AcDb3dPolylineVertex
 10
-6280.313349549483
 20
-3367.675421393589
 30
0.0
 70
    32
  0
VERTEX
  5
215
330
1ED
100
AcDbEntity
  8
P-PIPE-____-OTLN
100
AcDbVertex
100
AcDb3dPolylineVertex
 10
-6283.689180957844
 20
-3365.60247139492
 30
0.0
 70
    32
  0
VERTEX
  5
216
330
1ED
100
AcDbEntity
  8
P-PIPE-____-OTLN
100
AcDbVertex
100
AcDb3dPolylineVertex
 10
-6287.203092301476
 20
-3363.610708182579
 30
0.0
 70
    32
  0
VERTEX
  5
217
330
1ED
100
AcDbEntity
  8
P-PIPE-____-OTLN
100
AcDbVertex
100
AcDb3dPolylineVertex
 10
-6290.849520025448
 20
-3361.703043401874
 30
0.0
 70
    32
  0
VERTEX
  5
218
330
1ED
100
AcDbEntity
  8
P-PIPE-____-OTLN
100
AcDbVertex
100
AcDb3dPolylineVertex
 10
-6294.622705689014
 20
-3359.88227917889
 30
0.0
 70
    32
  0
VERTEX
  5
219
330
1ED
100
AcDbEntity
  8
P-PIPE-____-OTLN
100
AcDbVertex
100
AcDb3dPolylineVertex
 10
-6297.072668730298
 20
-3358.793084611459
 30
0.0
 70
    32
  0
SEQEND
  5
21A
330
1ED
100
AcDbEntity
  8
P-PIPE-____-OTLN
  0
POLYLINE
  5
21B
330
78
100
AcDbEntity
  8
P-PIPE-____-OTLN
100
AcDb3dPolyline
 66
     1
 10
0.0
 20
0.0
 30
0.0
 70
     8
  0
VERTEX
  5
21C
330
21B
100
AcDbEntity
  8
P-PIPE-____-OTLN
100
AcDbVertex
100
AcDb3dPolylineVertex
 10
-6445.628671906908
 20
-3358.814067234752
 30
0.0
 70
    32
  0
VERTEX
  5
21D
330
21B
100
AcDbEntity
  8
P-PIPE-____-OTLN
100
AcDbVertex
100
AcDb3dPolylineVertex
 10
-6448.745998093823
 20
-3360.221905061686
 30
0.0
 70
    32
  0
VERTEX
  5
21E
330
21B
100
AcDbEntity
  8
P-PIPE-____-OTLN
100
AcDbVertex
100
AcDb3dPolylineVertex
 10
-6452.495517331104
 20
-3362.059414926225
 30
0.0
 70
    32
  0
VERTEX
  5
21F
330
21B
100
AcDbEntity
  8
P-PIPE-____-OTLN
100
AcDbVertex
100
AcDb3dPolylineVertex
 10
-6456.117168146231
 20
-3363.983300862069
 30
0.0
 70
    32
  0
VERTEX
  5
220
330
21B
100
AcDbEntity
  8
P-PIPE-____-OTLN
100
AcDbVertex
100
AcDb3dPolylineVertex
 10
-6458.017030066478
 20
-3365.056755628027
 30
0.0
 70
    32
  0
SEQEND
  5
221
330
21B
100
AcDbEntity
  8
P-PIPE-____-OTLN
  0
POLYLINE
  5
222
330
78
100
AcDbEntity
  8
P-PIPE-____-OTLN
100
AcDb3dPolyline
 66
     1
 10
0.0
 20
0.0
 30
0.0
 70
     8
  0
VERTEX
  5
223
330
222
100
AcDbEntity
  8
P-PIPE-____-OTLN
100
AcDbVertex
100
AcDb3dPolylineVertex
 10
-6458.017030066478
 20
-3365.056755628028
 30
0.0
 70
    32
  0
VERTEX
  5
224
330
222
100
AcDbEntity
  8
P-PIPE-____-OTLN
100
AcDbVertex
100
AcDb3dPolylineVertex
 10
-6461.430667311237
 20
-3367.108085549324
 30
0.0
 70
    32
  0
VERTEX
  5
225
330
222
100
AcDbEntity
  8
P-PIPE-____-OTLN
100
AcDbVertex
100
AcDb3dPolylineVertex
 10
-6464.702288084537
 20
-3369.238410297974
 30
0.0
 70
    32
  0
VERTEX
  5
226
330
222
100
AcDbEntity
  8
P-PIPE-____-OTLN
100
AcDbVertex
100
AcDb3dPolylineVertex
 10
-6467.826674466036
 20
-3371.44464053662
 30
0.0
 70
    32
  0
VERTEX
  5
227
330
222
100
AcDbEntity
  8
P-PIPE-____-OTLN
100
AcDbVertex
100
AcDb3dPolylineVertex
 10
-6470.798811006679
 20
-3373.723589707836
 30
0.0
 70
    32
  0
VERTEX
  5
228
330
222
100
AcDbEntity
  8
P-PIPE-____-OTLN
100
AcDbVertex
100
AcDb3dPolylineVertex
 10
-6473.61388507933
 20
-3376.071976486752
 30
0.0
 70
    32
  0
VERTEX
  5
229
330
222
100
AcDbEntity
  8
P-PIPE-____-OTLN
100
AcDbVertex
100
AcDb3dPolylineVertex
 10
-6476.267286054039
 20
-3378.486425382966
 30
0.0
 70
    32
  0
VERTEX
  5
22A
330
222
100
AcDbEntity
  8
P-PIPE-____-OTLN
100
AcDbVertex
100
AcDb3dPolylineVertex
 10
-6478.754603591203
 20
-3380.963464916542
 30
0.0
 70
    32
  0
VERTEX
  5
22B
330
222
100
AcDbEntity
  8
P-PIPE-____-OTLN
100
AcDbVertex
100
AcDb3dPolylineVertex
 10
-6481.071625576737
 20
-3383.499522773317
 30
0.0
 70
    32
  0
VERTEX
  5
22C
330
222
100
AcDbEntity
  8
P-PIPE-____-OTLN
100
AcDbVertex
100
AcDb3dPolylineVertex
 10
-6483.214336518625
 20
-3386.090917406825
 30
0.0
 70
    32
  0
VERTEX
  5
22D
330
222
100
AcDbEntity
  8
P-PIPE-____-OTLN
100
AcDbVertex
100
AcDb3dPolylineVertex
 10
-6485.178917568076
 20
-3388.733845746337
 30
0.0
 70
    32
  0
VERTEX
  5
22E
330
222
100
AcDbEntity
  8
P-PIPE-____-OTLN
100
AcDbVertex
100
AcDb3dPolylineVertex
 10
-6486.961749677783
 20
-3391.424367044552
 30
0.0
 70
    32
  0
VERTEX
  5
22F
330
222
100
AcDbEntity
  8
P-PIPE-____-OTLN
100
AcDbVertex
100
AcDb3dPolylineVertex
 10
-6488.559421683828
 20
-3394.158383495723
 30
0.0
 70
    32
  0
VERTEX
  5
230
330
222
100
AcDbEntity
  8
P-PIPE-____-OTLN
100
AcDbVertex
100
AcDb3dPolylineVertex
 10
-6489.968745175355
 20
-3396.931619080038
 30
0.0
 70
    32
  0
VERTEX
  5
231
330
222
100
AcDbEntity
  8
P-PIPE-____-OTLN
100
AcDbVertex
100
AcDb3dPolylineVertex
 10
-6491.186777747255
 20
-3399.739599077474
 30
0.0
 70
    32
  0
VERTEX
  5
232
330
222
100
AcDbEntity
  8
P-PIPE-____-OTLN
100
AcDbVertex
100
AcDb3dPolylineVertex
 10
-6492.210855474811
 20
-3402.577633677093
 30
0.0
 70
    32
  0
VERTEX
  5
233
330
222
100
AcDbEntity
  8
P-PIPE-____-OTLN
100
AcDbVertex
100
AcDb3dPolylineVertex
 10
-6493.038634139892
 20
-3405.440809809057
 30
0.0
 70
    32
  0
VERTEX
  5
234
330
222
100
AcDbEntity
  8
P-PIPE-____-OTLN
100
AcDbVertex
100
AcDb3dPolylineVertex
 10
-6493.668136967319
 20
-3408.323995399926
 30
0.0
 70
    32
  0
VERTEX
  5
235
330
222
100
AcDbEntity
  8
P-PIPE-____-OTLN
100
AcDbVertex
100
AcDb3dPolylineVertex
 10
-6494.097804705481
 20
-3411.221859388906
 30
0.0
 70
    32
  0
VERTEX
  5
236
330
222
100
AcDbEntity
  8
P-PIPE-____-OTLN
100
AcDbVertex
100
AcDb3dPolylineVertex
 10
-6494.326542317444
 20
-3414.128908928918
 30
0.0
 70
    32
  0
VERTEX
  5
237
330
222
100
AcDbEntity
  8
P-PIPE-____-OTLN
100
AcDbVertex
100
AcDb3dPolylineVertex
 10
-6494.353755918481
 20
-3417.039542455335
 30
0.0
 70
    32
  0
VERTEX
  5
238
330
222
100
AcDbEntity
  8
P-PIPE-____-OTLN
100
AcDbVertex
100
AcDb3dPolylineVertex
 10
-6494.179374327105
 20
-3419.948114330882
 30
0.0
 70
    32
  0
VERTEX
  5
239
330
222
100
AcDbEntity
  8
P-PIPE-____-OTLN
100
AcDbVertex
100
AcDb3dPolylineVertex
 10
-6493.803851721986
 20
-3422.849004386607
 30
0.0
 70
    32
  0
VERTEX
  5
23A
330
222
100
AcDbEntity
  8
P-PIPE-____-OTLN
100
AcDbVertex
100
AcDb3dPolylineVertex
 10
-6493.228150961673
 20
-3425.736684619407
 30
0.0
 70
    32
  0
VERTEX
  5
23B
330
222
100
AcDbEntity
  8
P-PIPE-____-OTLN
100
AcDbVertex
100
AcDb3dPolylineVertex
 10
-6492.4537103104
 20
-3428.605775925276
 30
0.0
 70
    32
  0
VERTEX
  5
23C
330
222
100
AcDbEntity
  8
P-PIPE-____-OTLN
100
AcDbVertex
100
AcDb3dPolylineVertex
 10
-6491.482398756402
 20
-3431.45108983912
 30
0.0
 70
    32
  0
VERTEX
  5
23D
330
222
100
AcDbEntity
  8
P-PIPE-____-OTLN
100
AcDbVertex
100
AcDb3dPolylineVertex
 10
-6490.31646623349
 20
-3434.267653151991
 30
0.0
 70
    32
  0
VERTEX
  5
23E
330
222
100
AcDbEntity
  8
P-PIPE-____-OTLN
100
AcDbVertex
100
AcDb3dPolylineVertex
 10
-6488.958494764829
 20
-3437.050716152813
 30
0.0
 70
    32
  0
VERTEX
  5
23F
330
222
100
AcDbEntity
  8
P-PIPE-____-OTLN
100
AcDbVertex
100
AcDb3dPolylineVertex
 10
-6487.411355177702
 20
-3439.795747416791
 30
0.0
 70
    32
  0
VERTEX
  5
240
330
222
100
AcDbEntity
  8
P-PIPE-____-OTLN
100
AcDbVertex
100
AcDb3dPolylineVertex
 10
-6485.678172153223
 20
-3442.498419210139
 30
0.0
 70
    32
  0
VERTEX
  5
241
330
222
100
AcDbEntity
  8
P-PIPE-____-OTLN
100
AcDbVertex
100
AcDb3dPolylineVertex
 10
-6483.762298522558
 20
-3445.154587734732
 30
0.0
 70
    32
  0
VERTEX
  5
242
330
222
100
AcDbEntity
  8
P-PIPE-____-OTLN
100
AcDbVertex
100
AcDb3dPolylineVertex
 10
-6481.667298270003
 20
-3447.760271869506
 30
0.0
 70
    32
  0
VERTEX
  5
243
330
222
100
AcDbEntity
  8
P-PIPE-____-OTLN
100
AcDbVertex
100
AcDb3dPolylineVertex
 10
-6479.396936798981
 20
-3450.311633127198
 30
0.0
 70
    32
  0
VERTEX
  5
244
330
222
100
AcDbEntity
  8
P-PIPE-____-OTLN
100
AcDbVertex
100
AcDb3dPolylineVertex
 10
-6476.95517662884
 20
-3452.804958537683
 30
0.0
 70
    32
  0
VERTEX
  5
245
330
222
100
AcDbEntity
  8
P-PIPE-____-OTLN
100
AcDbVertex
100
AcDb3dPolylineVertex
 10
-6474.346176689597
 20
-3455.236647290117
 30
0.0
 70
    32
  0
VERTEX
  5
246
330
222
100
AcDbEntity
  8
P-PIPE-____-OTLN
100
AcDbVertex
100
AcDb3dPolylineVertex
 10
-6471.574293616503
 20
-3457.603201305519
 30
0.0
 70
    32
  0
VERTEX
  5
247
330
222
100
AcDbEntity
  8
P-PIPE-____-OTLN
100
AcDbVertex
100
AcDb3dPolylineVertex
 10
-6468.644083784766
 20
-3459.901219480227
 30
0.0
 70
    32
  0
VERTEX
  5
248
330
222
100
AcDbEntity
  8
P-PIPE-____-OTLN
100
AcDbVertex
100
AcDb3dPolylineVertex
 10
-6465.560305175838
 20
-3462.127395104439
 30
0.0
 70
    32
  0
VERTEX
  5
249
330
222
100
AcDbEntity
  8
P-PIPE-____-OTLN
100
AcDbVertex
100
AcDb3dPolylineVertex
 10
-6462.327918477591
 20
-3464.278515867906
 30
0.0
 70
    32
  0
VERTEX
  5
24A
330
222
100
AcDbEntity
  8
P-PIPE-____-OTLN
100
AcDbVertex
100
AcDb3dPolylineVertex
 10
-6458.95208706923
 20
-3466.351465866577
 30
0.0
 70
    32
  0
VERTEX
  5
24B
330
222
100
AcDbEntity
  8
P-PIPE-____-OTLN
100
AcDbVertex
100
AcDb3dPolylineVertex
 10
-6455.438175725598
 20
-3468.343229078918
 30
0.0
 70
    32
  0
VERTEX
  5
24C
330
222
100
AcDbEntity
  8
P-PIPE-____-OTLN
100
AcDbVertex
100
AcDb3dPolylineVertex
 10
-6451.791748001626
 20
-3470.250893859622
 30
0.0
 70
    32
  0
VERTEX
  5
24D
330
222
100
AcDbEntity
  8
P-PIPE-____-OTLN
100
AcDbVertex
100
AcDb3dPolylineVertex
 10
-6448.018562338059
 20
-3472.071658082607
 30
0.0
 70
    32
  0
VERTEX
  5
24E
330
222
100
AcDbEntity
  8
P-PIPE-____-OTLN
100
AcDbVertex
100
AcDb3dPolylineVertex
 10
-6444.124566975995
 20
-3473.802834644249
 30
0.0
 70
    32
  0
VERTEX
  5
24F
330
222
100
AcDbEntity
  8
P-PIPE-____-OTLN
100
AcDbVertex
100
AcDb3dPolylineVertex
 10
-6440.115893790391
 20
-3475.441857106221
 30
0.0
 70
    32
  0
VERTEX
  5
250
330
222
100
AcDbEntity
  8
P-PIPE-____-OTLN
100
AcDbVertex
100
AcDb3dPolylineVertex
 10
-6435.998851159997
 20
-3476.986285313873
 30
0.0
 70
    32
  0
VERTEX
  5
251
330
222
100
AcDbEntity
  8
P-PIPE-____-OTLN
100
AcDbVertex
100
AcDb3dPolylineVertex
 10
-6431.779915988768
 20
-3478.433810871018
 30
0.0
 70
    32
  0
VERTEX
  5
252
330
222
100
AcDbEntity
  8
P-PIPE-____-OTLN
100
AcDbVertex
100
AcDb3dPolylineVertex
 10
-6427.465724986426
 20
-3479.782262386585
 30
0.0
 70
    32
  0
VERTEX
  5
253
330
222
100
AcDbEntity
  8
P-PIPE-____-OTLN
100
AcDbVertex
100
AcDb3dPolylineVertex
 10
-6423.063065305737
 20
-3481.029610434732
 30
0.0
 70
    32
  0
VERTEX
  5
254
330
222
100
AcDbEntity
  8
P-PIPE-____-OTLN
100
AcDbVertex
100
AcDb3dPolylineVertex
 10
-6418.5788646235
 20
-3482.173972189206
 30
0.0
 70
    32
  0
VERTEX
  5
255
330
222
100
AcDbEntity
  8
P-PIPE-____-OTLN
100
AcDbVertex
100
AcDb3dPolylineVertex
 10
-6414.020180741838
 20
-3483.213615706621
 30
0.0
 70
    32
  0
VERTEX
  5
256
330
222
100
AcDbEntity
  8
P-PIPE-____-OTLN
100
AcDbVertex
100
AcDb3dPolylineVertex
 10
-6409.394190777065
 20
-3484.14696384313
 30
0.0
 70
    32
  0
VERTEX
  5
257
330
222
100
AcDbEntity
  8
P-PIPE-____-OTLN
100
AcDbVertex
100
AcDb3dPolylineVertex
 10
-6404.708179995013
 20
-3484.972597795699
 30
0.0
 70
    32
  0
VERTEX
  5
258
330
222
100
AcDbEntity
  8
P-PIPE-____-OTLN
100
AcDbVertex
100
AcDb3dPolylineVertex
 10
-6399.969530344774
 20
-3485.689260263765
 30
0.0
 70
    32
  0
VERTEX
  5
259
330
222
100
AcDbEntity
  8
P-PIPE-____-OTLN
100
AcDbVertex
100
AcDb3dPolylineVertex
 10
-6395.185708736809
 20
-3486.295858229946
 30
0.0
 70
    32
  0
VERTEX
  5
25A
330
222
100
AcDbEntity
  8
P-PIPE-____-OTLN
100
AcDbVertex
100
AcDb3dPolylineVertex
 10
-6390.36425510659
 20
-3486.791465360261
 30
0.0
 70
    32
  0
VERTEX
  5
25B
330
222
100
AcDbEntity
  8
P-PIPE-____-OTLN
100
AcDbVertex
100
AcDb3dPolylineVertex
 10
-6385.512770300992
 20
-3487.17532402527
 30
0.0
 70
    32
  0
VERTEX
  5
25C
330
222
100
AcDbEntity
  8
P-PIPE-____-OTLN
100
AcDbVertex
100
AcDb3dPolylineVertex
 10
-6380.63890382161
 20
-3487.44684694397
 30
0.0
 70
    32
  0
VERTEX
  5
25D
330
222
100
AcDbEntity
  8
P-PIPE-____-OTLN
100
AcDbVertex
100
AcDb3dPolylineVertex
 10
-6375.750341456704
 20
-3487.605618452279
 30
0.0
 70
    32
  0
VERTEX
  5
25E
330
222
100
AcDbEntity
  8
P-PIPE-____-OTLN
100
AcDbVertex
100
AcDb3dPolylineVertex
 10
-6370.854792831724
 20
-3487.651395397757
 30
0.0
 70
    32
  0
VERTEX
  5
25F
330
222
100
AcDbEntity
  8
P-PIPE-____-OTLN
100
AcDbVertex
100
AcDb3dPolylineVertex
 10
-6365.959978907099
 20
-3487.584107661802
 30
0.0
 70
    32
  0
VERTEX
  5
260
330
222
100
AcDbEntity
  8
P-PIPE-____-OTLN
100
AcDbVertex
100
AcDb3dPolylineVertex
 10
-6361.07361945114
 20
-3487.403858310057
 30
0.0
 70
    32
  0
VERTEX
  5
261
330
222
100
AcDbEntity
  8
P-PIPE-____-OTLN
100
AcDbVertex
100
AcDb3dPolylineVertex
 10
-6356.203420515555
 20
-3487.1109233713
 30
0.0
 70
    32
  0
VERTEX
  5
262
330
222
100
AcDbEntity
  8
P-PIPE-____-OTLN
100
AcDbVertex
100
AcDb3dPolylineVertex
 10
-6351.357061941101
 20
-3486.705751244435
 30
0.0
 70
    32
  0
VERTEX
  5
263
330
222
100
AcDbEntity
  8
P-PIPE-____-OTLN
100
AcDbVertex
100
AcDb3dPolylineVertex
 10
-6346.54218492137
 20
-3486.188961732767
 30
0.0
 70
    32
  0
VERTEX
  5
264
330
222
100
AcDbEntity
  8
P-PIPE-____-OTLN
100
AcDbVertex
100
AcDb3dPolylineVertex
 10
-6341.76637965357
 20
-3485.561344704215
 30
0.0
 70
    32
  0
VERTEX
  5
265
330
222
100
AcDbEntity
  8
P-PIPE-____-OTLN
100
AcDbVertex
100
AcDb3dPolylineVertex
 10
-6337.037173106549
 20
-3484.82385837579
 30
0.0
 70
    32
  0
VERTEX
  5
266
330
222
100
AcDbEntity
  8
P-PIPE-____-OTLN
100
AcDbVertex
100
AcDb3dPolylineVertex
 10
-6332.362016938202
 20
-3483.977627220452
 30
0.0
 70
    32
  0
VERTEX
  5
267
330
222
100
AcDbEntity
  8
P-PIPE-____-OTLN
100
AcDbVertex
100
AcDb3dPolylineVertex
 10
-6327.748275596952
 20
-3483.023939494583
 30
0.0
 70
    32
  0
VERTEX
  5
268
330
222
100
AcDbEntity
  8
P-PIPE-____-OTLN
100
AcDbVertex
100
AcDb3dPolylineVertex
 10
-6323.203214645189
 20
-3481.964244384788
 30
0.0
 70
    32
  0
VERTEX
  5
269
330
222
100
AcDbEntity
  8
P-PIPE-____-OTLN
100
AcDbVertex
100
AcDb3dPolylineVertex
 10
-6318.73398934668
 20
-3480.800148773831
 30
0.0
 70
    32
  0
VERTEX
  5
26A
330
222
100
AcDbEntity
  8
P-PIPE-____-OTLN
100
AcDbVertex
100
AcDb3dPolylineVertex
 10
-6314.347633564988
 20
-3479.533413627489
 30
0.0
 70
    32
  0
VERTEX
  5
26B
330
222
100
AcDbEntity
  8
P-PIPE-____-OTLN
100
AcDbVertex
100
AcDb3dPolylineVertex
 10
-6310.051049026021
 20
-3478.165950007285
 30
0.0
 70
    32
  0
VERTEX
  5
26C
330
222
100
AcDbEntity
  8
P-PIPE-____-OTLN
100
AcDbVertex
100
AcDb3dPolylineVertex
 10
-6305.850995005154
 20
-3476.699814718951
 30
0.0
 70
    32
  0
VERTEX
  5
26D
330
222
100
AcDbEntity
  8
P-PIPE-____-OTLN
100
AcDbVertex
100
AcDb3dPolylineVertex
 10
-6301.754078507856
 20
-3475.137205613779
 30
0.0
 70
    32
  0
VERTEX
  5
26E
330
222
100
AcDbEntity
  8
P-PIPE-____-OTLN
100
AcDbVertex
100
AcDb3dPolylineVertex
 10
-6297.76674502234
 20
-3473.480456570455
 30
0.0
 70
    32
  0
VERTEX
  5
26F
330
222
100
AcDbEntity
  8
P-PIPE-____-OTLN
100
AcDbVertex
100
AcDb3dPolylineVertex
 10
-6293.895269933251
 20
-3471.73203219981
 30
0.0
 70
    32
  0
VERTEX
  5
270
330
222
100
AcDbEntity
  8
P-PIPE-____-OTLN
100
AcDbVertex
100
AcDb3dPolylineVertex
 10
-6290.145750695969
 20
-3469.894522335272
 30
0.0
 70
    32
  0
VERTEX
  5
271
330
222
100
AcDbEntity
  8
P-PIPE-____-OTLN
100
AcDbVertex
100
AcDb3dPolylineVertex
 10
-6286.524099880843
 20
-3467.970636399427
 30
0.0
 70
    32
  0
VERTEX
  5
272
330
222
100
AcDbEntity
  8
P-PIPE-____-OTLN
100
AcDbVertex
100
AcDb3dPolylineVertex
 10
-6284.624237960596
 20
-3466.897181633469
 30
0.0
 70
    32
  0
SEQEND
  5
273
330
222
100
AcDbEntity
  8
P-PIPE-____-OTLN
  0
LINE
  5
274
330
78
100
AcDbEntity
  8
P-PIPE-____-OTLN
100
AcDbLine
 10
-6240.584542961887
 20
-3474.473453170012
 30
0.0
 11
-6249.896309745821
 21
-3411.216233309671
 31
0.0
  0
LINE
  5
275
330
78
100
AcDbEntity
  8
P-PIPE-____-OTLN
100
AcDbLine
 10
-6492.744958281253
 20
-3411.216233309676
 30
0.0
 11
-6502.056725065185
 21
-3474.473453170015
 31
0.0
  0
LINE
  5
276
330
78
100
AcDbEntity
  8
P-PIPE-____-OTLN
100
AcDbLine
 10
-6204.320634013539
 20
-3482.929688266818
 30
0.0
 11
-6204.320634013539
 21
-3480.888446814498
 31
0.0
  0
LINE
  5
277
330
78
100
AcDbEntity
  8
P-PIPE-____-OTLN
100
AcDbLine
 10
-6538.320634013533
 20
-3480.888446814504
 30
0.0
 11
-6538.320634013533
 21
-3482.929688266823
 31
0.0
  0
POLYLINE
  5
278
330
78
100
AcDbEntity
  8
P-PIPE-____-OTLN
100
AcDb3dPolyline
 66
     1
 10
0.0
 20
0.0
 30
0.0
 70
     8
  0
VERTEX
  5
279
330
278
100
AcDbEntity
  8
P-PIPE-____-OTLN
100
AcDbVertex
100
AcDb3dPolylineVertex
 10
-6335.965294954203
 20
-3361.271697708593
 30
0.0
 70
    32
  0
VERTEX
  5
27A
330
278
100
AcDbEntity
  8
P-PIPE-____-OTLN
100
AcDbVertex
100
AcDb3dPolylineVertex
 10
-6328.019363824314
 20
-3355.293039915141
 30
0.0
 70
    32
  0
VERTEX
  5
27B
330
278
100
AcDbEntity
  8
P-PIPE-____-OTLN
100
AcDbVertex
100
AcDb3dPolylineVertex
 10
-6323.024342699087
 20
-3348.330745453468
 30
0.0
 70
    32
  0
VERTEX
  5
27C
330
278
100
AcDbEntity
  8
P-PIPE-____-OTLN
100
AcDbVertex
100
AcDb3dPolylineVertex
 10
-6321.320634013543
 20
-3340.859283185402
 30
0.0
 70
    32
  0
VERTEX
  5
27D
330
278
100
AcDbEntity
  8
P-PIPE-____-OTLN
100
AcDbVertex
100
AcDb3dPolylineVertex
 10
-6323.024342699091
 20
-3333.387820917337
 30
0.0
 70
    32
  0
VERTEX
  5
27E
330
278
100
AcDbEntity
  8
P-PIPE-____-OTLN
100
AcDbVertex
100
AcDb3dPolylineVertex
 10
-6328.019363824322
 20
-3326.425526455665
 30
0.0
 70
    32
  0
VERTEX
  5
27F
330
278
100
AcDbEntity
  8
P-PIPE-____-OTLN
100
AcDbVertex
100
AcDb3dPolylineVertex
 10
-6335.965294954216
 20
-3320.446868662213
 30
0.0
 70
    32
  0
VERTEX
  5
280
330
278
100
AcDbEntity
  8
P-PIPE-____-OTLN
100
AcDbVertex
100
AcDb3dPolylineVertex
 10
-6346.320634013541
 20
-3315.859283185407
 30
0.0
 70
    32
  0
VERTEX
  5
281
330
278
100
AcDbEntity
  8
P-PIPE-____-OTLN
100
AcDbVertex
100
AcDb3dPolylineVertex
 10
-6358.379681758413
 20
-3312.975406394148
 30
0.0
 70
    32
  0
VERTEX
  5
282
330
278
100
AcDbEntity
  8
P-PIPE-____-OTLN
100
AcDbVertex
100
AcDb3dPolylineVertex
 10
-6371.320634013535
 20
-3311.991769725926
 30
0.0
 70
    32
  0
VERTEX
  5
283
330
278
100
AcDbEntity
  8
P-PIPE-____-OTLN
100
AcDbVertex
100
AcDb3dPolylineVertex
 10
-6384.261586268658
 20
-3312.975406394145
 30
0.0
 70
    32
  0
VERTEX
  5
284
330
278
100
AcDbEntity
  8
P-PIPE-____-OTLN
100
AcDbVertex
100
AcDb3dPolylineVertex
 10
-6396.320634013532
 20
-3315.859283185404
 30
0.0
 70
    32
  0
VERTEX
  5
285
330
278
100
AcDbEntity
  8
P-PIPE-____-OTLN
100
AcDbVertex
100
AcDb3dPolylineVertex
 10
-6406.675973072857
 20
-3320.446868662208
 30
0.0
 70
    32
  0
SEQEND
  5
286
330
278
100
AcDbEntity
  8
P-PIPE-____-OTLN
  0
POLYLINE
  5
287
330
78
100
AcDbEntity
  8
P-PIPE-____-OTLN
100
AcDb3dPolyline
 66
     1
 10
0.0
 20
0.0
 30
0.0
 70
     8
  0
VERTEX
  5
288
330
287
100
AcDbEntity
  8
P-PIPE-____-OTLN
100
AcDbVertex
100
AcDb3dPolylineVertex
 10
-6406.675973072857
 20
-3320.446868662208
 30
0.0
 70
    32
  0
VERTEX
  5
289
330
287
100
AcDbEntity
  8
P-PIPE-____-OTLN
100
AcDbVertex
100
AcDb3dPolylineVertex
 10
-6414.621904202758
 20
-3326.42552645566
 30
0.0
 70
    32
  0
VERTEX
  5
28A
330
287
100
AcDbEntity
  8
P-PIPE-____-OTLN
100
AcDbVertex
100
AcDb3dPolylineVertex
 10
-6419.616925327993
 20
-3333.387820917335
 30
0.0
 70
    32
  0
VERTEX
  5
28B
330
287
100
AcDbEntity
  8
P-PIPE-____-OTLN
100
AcDbVertex
100
AcDb3dPolylineVertex
 10
-6421.320634013543
 20
-3340.859283185403
 30
0.0
 70
    32
  0
VERTEX
  5
28C
330
287
100
AcDbEntity
  8
P-PIPE-____-OTLN
100
AcDbVertex
100
AcDb3dPolylineVertex
 10
-6419.616925327997
 20
-3348.330745453472
 30
0.0
 70
    32
  0
VERTEX
  5
28D
330
287
100
AcDbEntity
  8
P-PIPE-____-OTLN
100
AcDbVertex
100
AcDb3dPolylineVertex
 10
-6414.621904202765
 20
-3355.293039915148
 30
0.0
 70
    32
  0
VERTEX
  5
28E
330
287
100
AcDbEntity
  8
P-PIPE-____-OTLN
100
AcDbVertex
100
AcDb3dPolylineVertex
 10
-6406.675973072871
 20
-3361.271697708602
 30
0.0
 70
    32
  0
VERTEX
  5
28F
330
287
100
AcDbEntity
  8
P-PIPE-____-OTLN
100
AcDbVertex
100
AcDb3dPolylineVertex
 10
-6396.320634013539
 20
-3365.859283185409
 30
0.0
 70
    32
  0
VERTEX
  5
290
330
287
100
AcDbEntity
  8
P-PIPE-____-OTLN
100
AcDbVertex
100
AcDb3dPolylineVertex
 10
-6384.261586268664
 20
-3368.743159976669
 30
0.0
 70
    32
  0
VERTEX
  5
291
330
287
100
AcDbEntity
  8
P-PIPE-____-OTLN
100
AcDbVertex
100
AcDb3dPolylineVertex
 10
-6371.320634013534
 20
-3369.726796644889
 30
0.0
 70
    32
  0
VERTEX
  5
292
330
287
100
AcDbEntity
  8
P-PIPE-____-OTLN
100
AcDbVertex
100
AcDb3dPolylineVertex
 10
-6358.379681758405
 20
-3368.743159976666
 30
0.0
 70
    32
  0
VERTEX
  5
293
330
287
100
AcDbEntity
  8
P-PIPE-____-OTLN
100
AcDbVertex
100
AcDb3dPolylineVertex
 10
-6346.320634013531
 20
-3365.859283185404
 30
0.0
 70
    32
  0
VERTEX
  5
294
330
287
100
AcDbEntity
  8
P-PIPE-____-OTLN
100
AcDbVertex
100
AcDb3dPolylineVertex
 10
-6335.965294954204
 20
-3361.271697708594
 30
0.0
 70
    32
  0
SEQEND
  5
295
330
287
100
AcDbEntity
  8
P-PIPE-____-OTLN
  0
POLYLINE
  5
296
330
78
100
AcDbEntity
  8
P-PIPE-____-OTLN
100
AcDb3dPolyline
 66
     1
 10
0.0
 20
0.0
 30
0.0
 70
     8
  0
VERTEX
  5
297
330
296
100
AcDbEntity
  8
P-PIPE-____-OTLN
100
AcDbVertex
100
AcDb3dPolylineVertex
 10
-6333.702421540145
 20
-3362.578168283342
 30
0.0
 70
    32
  0
VERTEX
  5
298
330
296
100
AcDbEntity
  8
P-PIPE-____-OTLN
100
AcDbVertex
100
AcDb3dPolylineVertex
 10
-6321.105865021998
 20
-3351.003851428433
 30
0.0
 70
    32
  0
VERTEX
  5
299
330
296
100
AcDbEntity
  8
P-PIPE-____-OTLN
100
AcDbVertex
100
AcDb3dPolylineVertex
 10
-6318.454959346353
 20
-3337.420278418026
 30
0.0
 70
    32
  0
VERTEX
  5
29A
330
296
100
AcDbEntity
  8
P-PIPE-____-OTLN
100
AcDbVertex
100
AcDb3dPolylineVertex
 10
-6326.274748893494
 20
-3324.517842478421
 30
0.0
 70
    32
  0
VERTEX
  5
29B
330
296
100
AcDbEntity
  8
P-PIPE-____-OTLN
100
AcDbVertex
100
AcDb3dPolylineVertex
 10
-6343.016428440187
 20
-3314.852029285451
 30
0.0
 70
    32
  0
VERTEX
  5
29C
330
296
100
AcDbEntity
  8
P-PIPE-____-OTLN
100
AcDbVertex
100
AcDb3dPolylineVertex
 10
-6365.364103028987
 20
-3310.337271685404
 30
0.0
 70
    32
  0
VERTEX
  5
29D
330
296
100
AcDbEntity
  8
P-PIPE-____-OTLN
100
AcDbVertex
100
AcDb3dPolylineVertex
 10
-6388.89154163133
 20
-3311.867772790833
 30
0.0
 70
    32
  0
VERTEX
  5
29E
330
296
100
AcDbEntity
  8
P-PIPE-____-OTLN
100
AcDbVertex
100
AcDb3dPolylineVertex
 10
-6408.938846486934
 20
-3319.140398087449
 30
0.0
 70
    32
  0
SEQEND
  5
29F
330
296
100
AcDbEntity
  8
P-PIPE-____-OTLN
  0
POLYLINE
  5
2A0
330
78
100
AcDbEntity
  8
P-PIPE-____-OTLN
100
AcDb3dPolyline
 66
     1
 10
0.0
 20
0.0
 30
0.0
 70
     8
  0
VERTEX
  5
2A1
330
2A0
100
AcDbEntity
  8
P-PIPE-____-OTLN
100
AcDbVertex
100
AcDb3dPolylineVertex
 10
-6408.938846486934
 20
-3319.140398087449
 30
0.0
 70
    32
  0
VERTEX
  5
2A2
330
2A0
100
AcDbEntity
  8
P-PIPE-____-OTLN
100
AcDbVertex
100
AcDb3dPolylineVertex
 10
-6421.535403005082
 20
-3330.714714942358
 30
0.0
 70
    32
  0
VERTEX
  5
2A3
330
2A0
100
AcDbEntity
  8
P-PIPE-____-OTLN
100
AcDbVertex
100
AcDb3dPolylineVertex
 10
-6424.186308680727
 20
-3344.298287952765
 30
0.0
 70
    32
  0
VERTEX
  5
2A4
330
2A0
100
AcDbEntity
  8
P-PIPE-____-OTLN
100
AcDbVertex
100
AcDb3dPolylineVertex
 10
-6416.366519133584
 20
-3357.20072389237
 30
0.0
 70
    32
  0
VERTEX
  5
2A5
330
2A0
100
AcDbEntity
  8
P-PIPE-____-OTLN
100
AcDbVertex
100
AcDb3dPolylineVertex
 10
-6399.624839586891
 20
-3366.866537085339
 30
0.0
 70
    32
  0
VERTEX
  5
2A6
330
2A0
100
AcDbEntity
  8
P-PIPE-____-OTLN
100
AcDbVertex
100
AcDb3dPolylineVertex
 10
-6377.277164998093
 20
-3371.381294685387
 30
0.0
 70
    32
  0
VERTEX
  5
2A7
330
2A0
100
AcDbEntity
  8
P-PIPE-____-OTLN
100
AcDbVertex
100
AcDb3dPolylineVertex
 10
-6353.749726395748
 20
-3369.850793579957
 30
0.0
 70
    32
  0
VERTEX
  5
2A8
330
2A0
100
AcDbEntity
  8
P-PIPE-____-OTLN
100
AcDbVertex
100
AcDb3dPolylineVertex
 10
-6333.702421540145
 20
-3362.578168283342
 30
0.0
 70
    32
  0
SEQEND
  5
2A9
330
2A0
100
AcDbEntity
  8
P-PIPE-____-OTLN
  0
POLYLINE
  5
2AA
330
78
100
AcDbEntity
  8
P-PIPE-____-OTLN
100
AcDb3dPolyline
 66
     1
 10
0.0
 20
0.0
 30
0.0
 70
     8
  0
VERTEX
  5
2AB
330
2AA
100
AcDbEntity
  8
P-PIPE-____-OTLN
100
AcDbVertex
100
AcDb3dPolylineVertex
 10
-6332.898891106978
 20
-3365.083328247552
 30
0.0
 70
    32
  0
VERTEX
  5
2AC
330
2AA
100
AcDbEntity
  8
P-PIPE-____-OTLN
100
AcDbVertex
100
AcDb3dPolylineVertex
 10
-6320.033270328465
 20
-3353.261782318625
 30
0.0
 70
    32
  0
VERTEX
  5
2AD
330
2AA
100
AcDbEntity
  8
P-PIPE-____-OTLN
100
AcDbVertex
100
AcDb3dPolylineVertex
 10
-6317.325740926019
 20
-3339.388062233506
 30
0.0
 70
    32
  0
VERTEX
  5
2AE
330
2AA
100
AcDbEntity
  8
P-PIPE-____-OTLN
100
AcDbVertex
100
AcDb3dPolylineVertex
 10
-6320.033270328465
 20
-3332.539266956804
 30
0.0
 70
    32
  0
SEQEND
  5
2AF
330
2AA
100
AcDbEntity
  8
P-PIPE-____-OTLN
  0
POLYLINE
  5
2B0
330
78
100
AcDbEntity
  8
P-PIPE-____-OTLN
100
AcDb3dPolyline
 66
     1
 10
0.0
 20
0.0
 30
0.0
 70
     8
  0
VERTEX
  5
2B1
330
2B0
100
AcDbEntity
  8
P-PIPE-____-OTLN
100
AcDbVertex
100
AcDb3dPolylineVertex
 10
-6422.607997698612
 20
-3332.539266956806
 30
0.0
 70
    32
  0
VERTEX
  5
2B2
330
2B0
100
AcDbEntity
  8
P-PIPE-____-OTLN
100
AcDbVertex
100
AcDb3dPolylineVertex
 10
-6425.31552710106
 20
-3346.412987041923
 30
0.0
 70
    32
  0
VERTEX
  5
2B3
330
2B0
100
AcDbEntity
  8
P-PIPE-____-OTLN
100
AcDbVertex
100
AcDb3dPolylineVertex
 10
-6417.328705723618
 20
-3359.591020870364
 30
0.0
 70
    32
  0
VERTEX
  5
2B4
330
2B0
100
AcDbEntity
  8
P-PIPE-____-OTLN
100
AcDbVertex
100
AcDb3dPolylineVertex
 10
-6400.229421492023
 20
-3369.463297224424
 30
0.0
 70
    32
  0
VERTEX
  5
2B5
330
2B0
100
AcDbEntity
  8
P-PIPE-____-OTLN
100
AcDbVertex
100
AcDb3dPolylineVertex
 10
-6377.404397357302
 20
-3374.07449069666
 30
0.0
 70
    32
  0
VERTEX
  5
2B6
330
2B0
100
AcDbEntity
  8
P-PIPE-____-OTLN
100
AcDbVertex
100
AcDb3dPolylineVertex
 10
-6353.37440927989
 20
-3372.511297867319
 30
0.0
 70
    32
  0
VERTEX
  5
2B7
330
2B0
100
AcDbEntity
  8
P-PIPE-____-OTLN
100
AcDbVertex
100
AcDb3dPolylineVertex
 10
-6332.898891106978
 20
-3365.083328247552
 30
0.0
 70
    32
  0
SEQEND
  5
2B8
330
2B0
100
AcDbEntity
  8
P-PIPE-____-OTLN
  0
LINE
  5
2B9
330
78
100
AcDbEntity
  8
P-PIPE-____-OTLN
100
AcDbLine
 10
-6332.099763580295
 20
-3367.574761307849
 30
0.0
 11
-6327.675239364462
 21
-3364.692774749342
 31
0.0
  0
LINE
  5
2BA
330
78
100
AcDbEntity
  8
P-PIPE-____-OTLN
100
AcDbLine
 10
-6324.355647968719
 20
-3361.968220330668
 30
0.0
 11
-6321.346875915661
 21
-3358.825146769606
 31
0.0
  0
POLYLINE
  5
2BB
330
78
100
AcDbEntity
  8
P-PIPE-____-OTLN
100
AcDb3dPolyline
 66
     1
 10
0.0
 20
0.0
 30
0.0
 70
     8
  0
VERTEX
  5
2BC
330
2BB
100
AcDbEntity
  8
P-PIPE-____-OTLN
100
AcDbVertex
100
AcDb3dPolylineVertex
 10
-6421.29439211142
 20
-3358.825146769608
 30
0.0
 70
    32
  0
VERTEX
  5
2BD
330
2BB
100
AcDbEntity
  8
P-PIPE-____-OTLN
100
AcDbVertex
100
AcDb3dPolylineVertex
 10
-6418.285620058362
 20
-3361.96822033067
 30
0.0
 70
    32
  0
VERTEX
  5
2BE
330
2BB
100
AcDbEntity
  8
P-PIPE-____-OTLN
100
AcDbVertex
100
AcDb3dPolylineVertex
 10
-6400.830690619591
 20
-3372.04582854083
 30
0.0
 70
    32
  0
VERTEX
  5
2BF
330
2BB
100
AcDbEntity
  8
P-PIPE-____-OTLN
100
AcDbVertex
100
AcDb3dPolylineVertex
 10
-6377.530932552899
 20
-3376.752929469514
 30
0.0
 70
    32
  0
VERTEX
  5
2C0
330
2BB
100
AcDbEntity
  8
P-PIPE-____-OTLN
100
AcDbVertex
100
AcDb3dPolylineVertex
 10
-6353.001148696173
 20
-3375.157224048996
 30
0.0
 70
    32
  0
VERTEX
  5
2C1
330
2BB
100
AcDbEntity
  8
P-PIPE-____-OTLN
100
AcDbVertex
100
AcDb3dPolylineVertex
 10
-6332.099763580295
 20
-3367.574761307849
 30
0.0
 70
    32
  0
SEQEND
  5
2C2
330
2BB
100
AcDbEntity
  8
P-PIPE-____-OTLN
  0
POLYLINE
  5
2C3
330
78
100
AcDbEntity
  8
P-PIPE-____-OTLN
100
AcDb3dPolyline
 66
     1
 10
0.0
 20
0.0
 30
0.0
 70
     8
  0
VERTEX
  5
2C4
330
2C3
100
AcDbEntity
  8
P-PIPE-____-OTLN
100
AcDbVertex
100
AcDb3dPolylineVertex
 10
-6326.631353728281
 20
-3384.62357596839
 30
0.0
 70
    32
  0
VERTEX
  5
2C5
330
2C3
100
AcDbEntity
  8
P-PIPE-____-OTLN
100
AcDbVertex
100
AcDb3dPolylineVertex
 10
-6311.667031718915
 20
-3370.873643262119
 30
0.0
 70
    32
  0
VERTEX
  5
2C6
330
2C3
100
AcDbEntity
  8
P-PIPE-____-OTLN
100
AcDbVertex
100
AcDb3dPolylineVertex
 10
-6308.51783724742
 20
-3354.736775994256
 30
0.0
 70
    32
  0
VERTEX
  5
2C7
330
2C3
100
AcDbEntity
  8
P-PIPE-____-OTLN
100
AcDbVertex
100
AcDb3dPolylineVertex
 10
-6311.722809871485
 20
-3346.782041172495
 30
0.0
 70
    32
  0
SEQEND
  5
2C8
330
2C3
100
AcDbEntity
  8
P-PIPE-____-OTLN
  0
POLYLINE
  5
2C9
330
78
100
AcDbEntity
  8
P-PIPE-____-OTLN
100
AcDb3dPolyline
 66
     1
 10
0.0
 20
0.0
 30
0.0
 70
     8
  0
VERTEX
  5
2CA
330
2C9
100
AcDbEntity
  8
P-PIPE-____-OTLN
100
AcDbVertex
100
AcDb3dPolylineVertex
 10
-6430.974236308164
 20
-3346.770772669493
 30
0.0
 70
    32
  0
VERTEX
  5
2CB
330
2C9
100
AcDbEntity
  8
P-PIPE-____-OTLN
100
AcDbVertex
100
AcDb3dPolylineVertex
 10
-6434.123430779658
 20
-3362.907639937354
 30
0.0
 70
    32
  0
VERTEX
  5
2CC
330
2C9
100
AcDbEntity
  8
P-PIPE-____-OTLN
100
AcDbVertex
100
AcDb3dPolylineVertex
 10
-6424.833761125866
 20
-3378.235337298715
 30
0.0
 70
    32
  0
VERTEX
  5
2CD
330
2C9
100
AcDbEntity
  8
P-PIPE-____-OTLN
100
AcDbVertex
100
AcDb3dPolylineVertex
 10
-6404.945160352044
 20
-3389.718026309287
 30
0.0
 70
    32
  0
VERTEX
  5
2CE
330
2C9
100
AcDbEntity
  8
P-PIPE-____-OTLN
100
AcDbVertex
100
AcDb3dPolylineVertex
 10
-6378.396809759126
 20
-3395.081419584587
 30
0.0
 70
    32
  0
VERTEX
  5
2CF
330
2C9
100
AcDbEntity
  8
P-PIPE-____-OTLN
100
AcDbVertex
100
AcDb3dPolylineVertex
 10
-6350.446935776196
 20
-3393.263231308739
 30
0.0
 70
    32
  0
VERTEX
  5
2D0
330
2C9
100
AcDbEntity
  8
P-PIPE-____-OTLN
100
AcDbVertex
100
AcDb3dPolylineVertex
 10
-6326.631353728281
 20
-3384.62357596839
 30
0.0
 70
    32
  0
SEQEND
  5
2D1
330
2C9
100
AcDbEntity
  8
P-PIPE-____-OTLN
  0
POLYLINE
  5
2D2
330
78
100
AcDbEntity
  8
P-PIPE-____-OTLN
100
AcDb3dPolyline
 66
     1
 10
0.0
 20
0.0
 30
0.0
 70
     8
  0
VERTEX
  5
2D3
330
2D2
100
AcDbEntity
  8
P-PIPE-____-OTLN
100
AcDbVertex
100
AcDb3dPolylineVertex
 10
-6321.414638057062
 20
-3387.635448165454
 30
0.0
 70
    32
  0
VERTEX
  5
2D4
330
2D2
100
AcDbEntity
  8
P-PIPE-____-OTLN
100
AcDbVertex
100
AcDb3dPolylineVertex
 10
-6306.115307971536
 20
-3374.415821194431
 30
0.0
 70
    32
  0
VERTEX
  5
2D5
330
2D2
100
AcDbEntity
  8
P-PIPE-____-OTLN
100
AcDbVertex
100
AcDb3dPolylineVertex
 10
-6300.742897688152
 20
-3358.822207965805
 30
0.0
 70
    32
  0
VERTEX
  5
2D6
330
2D2
100
AcDbEntity
  8
P-PIPE-____-OTLN
100
AcDbVertex
100
AcDb3dPolylineVertex
 10
-6306.115307971536
 20
-3343.22859473718
 30
0.0
 70
    32
  0
VERTEX
  5
2D7
330
2D2
100
AcDbEntity
  8
P-PIPE-____-OTLN
100
AcDbVertex
100
AcDb3dPolylineVertex
 10
-6320.348025047885
 20
-3330.638229064957
 30
0.0
 70
    32
  0
SEQEND
  5
2D8
330
2D2
100
AcDbEntity
  8
P-PIPE-____-OTLN
  0
POLYLINE
  5
2D9
330
78
100
AcDbEntity
  8
P-PIPE-____-OTLN
100
AcDb3dPolyline
 66
     1
 10
0.0
 20
0.0
 30
0.0
 70
     8
  0
VERTEX
  5
2DA
330
2D9
100
AcDbEntity
  8
P-PIPE-____-OTLN
100
AcDbVertex
100
AcDb3dPolylineVertex
 10
-6422.164413538573
 20
-3330.560768108492
 30
0.0
 70
    32
  0
VERTEX
  5
2DB
330
2D9
100
AcDbEntity
  8
P-PIPE-____-OTLN
100
AcDbVertex
100
AcDb3dPolylineVertex
 10
-6436.525960055544
 20
-3343.228594737181
 30
0.0
 70
    32
  0
VERTEX
  5
2DC
330
2D9
100
AcDbEntity
  8
P-PIPE-____-OTLN
100
AcDbVertex
100
AcDb3dPolylineVertex
 10
-6441.898370338927
 20
-3358.822207965807
 30
0.0
 70
    32
  0
VERTEX
  5
2DD
330
2D9
100
AcDbEntity
  8
P-PIPE-____-OTLN
100
AcDbVertex
100
AcDb3dPolylineVertex
 10
-6436.525960055544
 20
-3374.415821194432
 30
0.0
 70
    32
  0
VERTEX
  5
2DE
330
2D9
100
AcDbEntity
  8
P-PIPE-____-OTLN
100
AcDbVertex
100
AcDb3dPolylineVertex
 10
-6421.226629970018
 20
-3387.635448165455
 30
0.0
 70
    32
  0
VERTEX
  5
2DF
330
2D9
100
AcDbEntity
  8
P-PIPE-____-OTLN
100
AcDbVertex
100
AcDb3dPolylineVertex
 10
-6398.329564399097
 20
-3396.468520508755
 30
0.0
 70
    32
  0
VERTEX
  5
2E0
330
2D9
100
AcDbEntity
  8
P-PIPE-____-OTLN
100
AcDbVertex
100
AcDb3dPolylineVertex
 10
-6371.320634013539
 20
-3399.570283032062
 30
0.0
 70
    32
  0
VERTEX
  5
2E1
330
2D9
100
AcDbEntity
  8
P-PIPE-____-OTLN
100
AcDbVertex
100
AcDb3dPolylineVertex
 10
-6344.311703627981
 20
-3396.468520508754
 30
0.0
 70
    32
  0
VERTEX
  5
2E2
330
2D9
100
AcDbEntity
  8
P-PIPE-____-OTLN
100
AcDbVertex
100
AcDb3dPolylineVertex
 10
-6321.414638057062
 20
-3387.635448165454
 30
0.0
 70
    32
  0
SEQEND
  5
2E3
330
2D9
100
AcDbEntity
  8
P-PIPE-____-OTLN
  0
POLYLINE
  5
2E4
330
78
100
AcDbEntity
  8
P-PIPE-____-OTLN
100
AcDb3dPolyline
 66
     1
 10
0.0
 20
0.0
 30
0.0
 70
     8
  0
VERTEX
  5
2E5
330
2E4
100
AcDbEntity
  8
P-PIPE-____-OTLN
100
AcDbVertex
100
AcDb3dPolylineVertex
 10
-6320.95897174589
 20
-3389.939768685189
 30
0.0
 70
    32
  0
VERTEX
  5
2E6
330
2E4
100
AcDbEntity
  8
P-PIPE-____-OTLN
100
AcDbVertex
100
AcDb3dPolylineVertex
 10
-6305.519951245014
 20
-3376.599440012066
 30
0.0
 70
    32
  0
VERTEX
  5
2E7
330
2E4
100
AcDbEntity
  8
P-PIPE-____-OTLN
100
AcDbVertex
100
AcDb3dPolylineVertex
 10
-6300.098488210975
 20
-3360.863449418125
 30
0.0
 70
    32
  0
VERTEX
  5
2E8
330
2E4
100
AcDbEntity
  8
P-PIPE-____-OTLN
100
AcDbVertex
100
AcDb3dPolylineVertex
 10
-6301.467001771651
 20
-3352.841310980509
 30
0.0
 70
    32
  0
SEQEND
  5
2E9
330
2E4
100
AcDbEntity
  8
P-PIPE-____-OTLN
  0
POLYLINE
  5
2EA
330
78
100
AcDbEntity
  8
P-PIPE-____-OTLN
100
AcDb3dPolyline
 66
     1
 10
0.0
 20
0.0
 30
0.0
 70
     8
  0
VERTEX
  5
2EB
330
2EA
100
AcDbEntity
  8
P-PIPE-____-OTLN
100
AcDbVertex
100
AcDb3dPolylineVertex
 10
-6441.174266255427
 20
-3352.841310980509
 30
0.0
 70
    32
  0
VERTEX
  5
2EC
330
2EA
100
AcDbEntity
  8
P-PIPE-____-OTLN
100
AcDbVertex
100
AcDb3dPolylineVertex
 10
-6442.542779816104
 20
-3360.863449418126
 30
0.0
 70
    32
  0
VERTEX
  5
2ED
330
2EA
100
AcDbEntity
  8
P-PIPE-____-OTLN
100
AcDbVertex
100
AcDb3dPolylineVertex
 10
-6437.121316782063
 20
-3376.599440012068
 30
0.0
 70
    32
  0
VERTEX
  5
2EE
330
2EA
100
AcDbEntity
  8
P-PIPE-____-OTLN
100
AcDbVertex
100
AcDb3dPolylineVertex
 10
-6421.682296281189
 20
-3389.939768685191
 30
0.0
 70
    32
  0
VERTEX
  5
2EF
330
2EA
100
AcDbEntity
  8
P-PIPE-____-OTLN
100
AcDbVertex
100
AcDb3dPolylineVertex
 10
-6398.576169229671
 20
-3398.853491327394
 30
0.0
 70
    32
  0
VERTEX
  5
2F0
330
2EA
100
AcDbEntity
  8
P-PIPE-____-OTLN
100
AcDbVertex
100
AcDb3dPolylineVertex
 10
-6371.320634013539
 20
-3401.983574469499
 30
0.0
 70
    32
  0
VERTEX
  5
2F1
330
2EA
100
AcDbEntity
  8
P-PIPE-____-OTLN
100
AcDbVertex
100
AcDb3dPolylineVertex
 10
-6344.065098797407
 20
-3398.853491327394
 30
0.0
 70
    32
  0
VERTEX
  5
2F2
330
2EA
100
AcDbEntity
  8
P-PIPE-____-OTLN
100
AcDbVertex
100
AcDb3dPolylineVertex
 10
-6320.95897174589
 20
-3389.939768685189
 30
0.0
 70
    32
  0
SEQEND
  5
2F3
330
2EA
100
AcDbEntity
  8
P-PIPE-____-OTLN
  0
POLYLINE
  5
2F4
330
78
100
AcDbEntity
  8
P-PIPE-____-OTLN
100
AcDb3dPolyline
 66
     1
 10
0.0
 20
0.0
 30
0.0
 70
     8
  0
VERTEX
  5
2F5
330
2F4
100
AcDbEntity
  8
P-PIPE-____-OTLN
100
AcDbVertex
100
AcDb3dPolylineVertex
 10
-6422.263384481261
 20
-3392.493156710434
 30
0.0
 70
    32
  0
VERTEX
  5
2F6
330
2F4
100
AcDbEntity
  8
P-PIPE-____-OTLN
100
AcDbVertex
100
AcDb3dPolylineVertex
 10
-6422.195028792922
 20
-3392.532674982958
 30
0.0
 70
    32
  0
VERTEX
  5
2F7
330
2F4
100
AcDbEntity
  8
P-PIPE-____-OTLN
100
AcDbVertex
100
AcDb3dPolylineVertex
 10
-6416.963491984401
 20
-3395.270232423711
 30
0.0
 70
    32
  0
SEQEND
  5
2F8
330
2F4
100
AcDbEntity
  8
P-PIPE-____-OTLN
  0
POLYLINE
  5
2F9
330
78
100
AcDbEntity
  8
P-PIPE-____-OTLN
100
AcDb3dPolyline
 66
     1
 10
0.0
 20
0.0
 30
0.0
 70
     8
  0
VERTEX
  5
2FA
330
2F9
100
AcDbEntity
  8
P-PIPE-____-OTLN
100
AcDbVertex
100
AcDb3dPolylineVertex
 10
-6411.292389502697
 20
-3397.698553945886
 30
0.0
 70
    32
  0
VERTEX
  5
2FB
330
2F9
100
AcDbEntity
  8
P-PIPE-____-OTLN
100
AcDbVertex
100
AcDb3dPolylineVertex
 10
-6398.853658065439
 20
-3401.537148311168
 30
0.0
 70
    32
  0
VERTEX
  5
2FC
330
2F9
100
AcDbEntity
  8
P-PIPE-____-OTLN
100
AcDbVertex
100
AcDb3dPolylineVertex
 10
-6371.320634013539
 20
-3404.699098856355
 30
0.0
 70
    32
  0
VERTEX
  5
2FD
330
2F9
100
AcDbEntity
  8
P-PIPE-____-OTLN
100
AcDbVertex
100
AcDb3dPolylineVertex
 10
-6343.787609961639
 20
-3401.537148311168
 30
0.0
 70
    32
  0
VERTEX
  5
2FE
330
2F9
100
AcDbEntity
  8
P-PIPE-____-OTLN
100
AcDbVertex
100
AcDb3dPolylineVertex
 10
-6331.348878524384
 20
-3397.698553945886
 30
0.0
 70
    32
  0
SEQEND
  5
2FF
330
2F9
100
AcDbEntity
  8
P-PIPE-____-OTLN
  0
POLYLINE
  5
300
330
78
100
AcDbEntity
  8
P-PIPE-____-OTLN
100
AcDb3dPolyline
 66
     1
 10
0.0
 20
0.0
 30
0.0
 70
     8
  0
VERTEX
  5
301
330
300
100
AcDbEntity
  8
P-PIPE-____-OTLN
100
AcDbVertex
100
AcDb3dPolylineVertex
 10
-6317.404774518737
 20
-3407.913468739129
 30
0.0
 70
    32
  0
VERTEX
  5
302
330
300
100
AcDbEntity
  8
P-PIPE-____-OTLN
100
AcDbVertex
100
AcDb3dPolylineVertex
 10
-6300.876168778154
 20
-3393.631666789621
 30
0.0
 70
    32
  0
VERTEX
  5
303
330
300
100
AcDbEntity
  8
P-PIPE-____-OTLN
100
AcDbVertex
100
AcDb3dPolylineVertex
 10
-6295.072094288989
 20
-3376.785132746215
 30
0.0
 70
    32
  0
VERTEX
  5
304
330
300
100
AcDbEntity
  8
P-PIPE-____-OTLN
100
AcDbVertex
100
AcDb3dPolylineVertex
 10
-6296.578339019211
 20
-3368.201569968644
 30
0.0
 70
    32
  0
SEQEND
  5
305
330
300
100
AcDbEntity
  8
P-PIPE-____-OTLN
  0
POLYLINE
  5
306
330
78
100
AcDbEntity
  8
P-PIPE-____-OTLN
100
AcDb3dPolyline
 66
     1
 10
0.0
 20
0.0
 30
0.0
 70
     8
  0
VERTEX
  5
307
330
306
100
AcDbEntity
  8
P-PIPE-____-OTLN
100
AcDbVertex
100
AcDb3dPolylineVertex
 10
-6446.062929007867
 20
-3368.201569968645
 30
0.0
 70
    32
  0
VERTEX
  5
308
330
306
100
AcDbEntity
  8
P-PIPE-____-OTLN
100
AcDbVertex
100
AcDb3dPolylineVertex
 10
-6447.56917373809
 20
-3376.785132746216
 30
0.0
 70
    32
  0
VERTEX
  5
309
330
306
100
AcDbEntity
  8
P-PIPE-____-OTLN
100
AcDbVertex
100
AcDb3dPolylineVertex
 10
-6441.765099248925
 20
-3393.631666789622
 30
0.0
 70
    32
  0
VERTEX
  5
30A
330
306
100
AcDbEntity
  8
P-PIPE-____-OTLN
100
AcDbVertex
100
AcDb3dPolylineVertex
 10
-6425.236493508339
 20
-3407.91346873913
 30
0.0
 70
    32
  0
VERTEX
  5
30B
330
306
100
AcDbEntity
  8
P-PIPE-____-OTLN
100
AcDbVertex
100
AcDb3dPolylineVertex
 10
-6400.499686908156
 20
-3417.456263712786
 30
0.0
 70
    32
  0
VERTEX
  5
30C
330
306
100
AcDbEntity
  8
P-PIPE-____-OTLN
100
AcDbVertex
100
AcDb3dPolylineVertex
 10
-6371.320634013539
 20
-3420.807247681502
 30
0.0
 70
    32
  0
VERTEX
  5
30D
330
306
100
AcDbEntity
  8
P-PIPE-____-OTLN
100
AcDbVertex
100
AcDb3dPolylineVertex
 10
-6342.141581118922
 20
-3417.456263712785
 30
0.0
 70
    32
  0
VERTEX
  5
30E
330
306
100
AcDbEntity
  8
P-PIPE-____-OTLN
100
AcDbVertex
100
AcDb3dPolylineVertex
 10
-6317.404774518737
 20
-3407.913468739129
 30
0.0
 70
    32
  0
SEQEND
  5
30F
330
306
100
AcDbEntity
  8
P-PIPE-____-OTLN
  0
POLYLINE
  5
310
330
78
100
AcDbEntity
  8
P-PIPE-____-OTLN
100
AcDb3dPolyline
 66
     1
 10
0.0
 20
0.0
 30
0.0
 70
     8
  0
VERTEX
  5
311
330
310
100
AcDbEntity
  8
P-PIPE-____-OTLN
100
AcDbVertex
100
AcDb3dPolylineVertex
 10
-6314.484970971414
 20
-3409.599218103157
 30
0.0
 70
    32
  0
VERTEX
  5
312
330
310
100
AcDbEntity
  8
P-PIPE-____-OTLN
100
AcDbVertex
100
AcDb3dPolylineVertex
 10
-6297.061261598505
 20
-3394.543987771257
 30
0.0
 70
    32
  0
VERTEX
  5
313
330
310
100
AcDbEntity
  8
P-PIPE-____-OTLN
100
AcDbVertex
100
AcDb3dPolylineVertex
 10
-6290.9428685129
 20
-3376.785132746215
 30
0.0
 70
    32
  0
VERTEX
  5
314
330
310
100
AcDbEntity
  8
P-PIPE-____-OTLN
100
AcDbVertex
100
AcDb3dPolylineVertex
 10
-6297.061261598505
 20
-3359.026277721174
 30
0.0
 70
    32
  0
VERTEX
  5
315
330
310
100
AcDbEntity
  8
P-PIPE-____-OTLN
100
AcDbVertex
100
AcDb3dPolylineVertex
 10
-6299.332965987365
 20
-3356.142451726628
 30
0.0
 70
    32
  0
SEQEND
  5
316
330
310
100
AcDbEntity
  8
P-PIPE-____-OTLN
  0
POLYLINE
  5
317
330
78
100
AcDbEntity
  8
P-PIPE-____-OTLN
100
AcDb3dPolyline
 66
     1
 10
0.0
 20
0.0
 30
0.0
 70
     8
  0
VERTEX
  5
318
330
317
100
AcDbEntity
  8
P-PIPE-____-OTLN
100
AcDbVertex
100
AcDb3dPolylineVertex
 10
-6443.455405918779
 20
-3356.314341611406
 30
0.0
 70
    32
  0
VERTEX
  5
319
330
317
100
AcDbEntity
  8
P-PIPE-____-OTLN
100
AcDbVertex
100
AcDb3dPolylineVertex
 10
-6445.580006428572
 20
-3359.026277721174
 30
0.0
 70
    32
  0
VERTEX
  5
31A
330
317
100
AcDbEntity
  8
P-PIPE-____-OTLN
100
AcDbVertex
100
AcDb3dPolylineVertex
 10
-6451.69839951418
 20
-3376.785132746216
 30
0.0
 70
    32
  0
VERTEX
  5
31B
330
317
100
AcDbEntity
  8
P-PIPE-____-OTLN
100
AcDbVertex
100
AcDb3dPolylineVertex
 10
-6445.580006428574
 20
-3394.543987771258
 30
0.0
 70
    32
  0
VERTEX
  5
31C
330
317
100
AcDbEntity
  8
P-PIPE-____-OTLN
100
AcDbVertex
100
AcDb3dPolylineVertex
 10
-6428.156297055664
 20
-3409.599218103159
 30
0.0
 70
    32
  0
VERTEX
  5
31D
330
317
100
AcDbEntity
  8
P-PIPE-____-OTLN
100
AcDbVertex
100
AcDb3dPolylineVertex
 10
-6402.079873201159
 20
-3419.658801399889
 30
0.0
 70
    32
  0
VERTEX
  5
31E
330
317
100
AcDbEntity
  8
P-PIPE-____-OTLN
100
AcDbVertex
100
AcDb3dPolylineVertex
 10
-6371.320634013539
 20
-3423.191257294871
 30
0.0
 70
    32
  0
VERTEX
  5
31F
330
317
100
AcDbEntity
  8
P-PIPE-____-OTLN
100
AcDbVertex
100
AcDb3dPolylineVertex
 10
-6340.561394825917
 20
-3419.658801399888
 30
0.0
 70
    32
  0
VERTEX
  5
320
330
317
100
AcDbEntity
  8
P-PIPE-____-OTLN
100
AcDbVertex
100
AcDb3dPolylineVertex
 10
-6314.484970971414
 20
-3409.599218103157
 30
0.0
 70
    32
  0
SEQEND
  5
321
330
317
100
AcDbEntity
  8
P-PIPE-____-OTLN
  0
POLYLINE
  5
322
330
78
100
AcDbEntity
  8
P-PIPE-____-OTLN
100
AcDb3dPolyline
 66
     1
 10
0.0
 20
0.0
 30
0.0
 70
     8
  0
VERTEX
  5
323
330
322
100
AcDbEntity
  8
P-PIPE-____-OTLN
100
AcDbVertex
100
AcDb3dPolylineVertex
 10
-6313.914282096256
 20
-3411.969946931173
 30
0.0
 70
    32
  0
VERTEX
  5
324
330
322
100
AcDbEntity
  8
P-PIPE-____-OTLN
100
AcDbVertex
100
AcDb3dPolylineVertex
 10
-6296.315620649757
 20
-3396.76354650635
 30
0.0
 70
    32
  0
VERTEX
  5
325
330
322
100
AcDbEntity
  8
P-PIPE-____-OTLN
100
AcDbVertex
100
AcDb3dPolylineVertex
 10
-6290.135792565754
 20
-3378.826374198534
 30
0.0
 70
    32
  0
VERTEX
  5
326
330
322
100
AcDbEntity
  8
P-PIPE-____-OTLN
100
AcDbVertex
100
AcDb3dPolylineVertex
 10
-6292.444047098111
 20
-3367.728889236095
 30
0.0
 70
    32
  0
SEQEND
  5
327
330
322
100
AcDbEntity
  8
P-PIPE-____-OTLN
  0
POLYLINE
  5
328
330
78
100
AcDbEntity
  8
P-PIPE-____-OTLN
100
AcDb3dPolyline
 66
     1
 10
0.0
 20
0.0
 30
0.0
 70
     8
  0
VERTEX
  5
329
330
328
100
AcDbEntity
  8
P-PIPE-____-OTLN
100
AcDbVertex
100
AcDb3dPolylineVertex
 10
-6450.197220928969
 20
-3367.728889236096
 30
0.0
 70
    32
  0
VERTEX
  5
32A
330
328
100
AcDbEntity
  8
P-PIPE-____-OTLN
100
AcDbVertex
100
AcDb3dPolylineVertex
 10
-6452.505475461324
 20
-3378.826374198535
 30
0.0
 70
    32
  0
VERTEX
  5
32B
330
328
100
AcDbEntity
  8
P-PIPE-____-OTLN
100
AcDbVertex
100
AcDb3dPolylineVertex
 10
-6446.325647377321
 20
-3396.763546506351
 30
0.0
 70
    32
  0
VERTEX
  5
32C
330
328
100
AcDbEntity
  8
P-PIPE-____-OTLN
100
AcDbVertex
100
AcDb3dPolylineVertex
 10
-6428.726985930822
 20
-3411.969946931173
 30
0.0
 70
    32
  0
VERTEX
  5
32D
330
328
100
AcDbEntity
  8
P-PIPE-____-OTLN
100
AcDbVertex
100
AcDb3dPolylineVertex
 10
-6402.388727794793
 20
-3422.130538854687
 30
0.0
 70
    32
  0
VERTEX
  5
32E
330
328
100
AcDbEntity
  8
P-PIPE-____-OTLN
100
AcDbVertex
100
AcDb3dPolylineVertex
 10
-6371.320634013539
 20
-3425.698464262531
 30
0.0
 70
    32
  0
VERTEX
  5
32F
330
328
100
AcDbEntity
  8
P-PIPE-____-OTLN
100
AcDbVertex
100
AcDb3dPolylineVertex
 10
-6340.252540232285
 20
-3422.130538854687
 30
0.0
 70
    32
  0
VERTEX
  5
330
330
328
100
AcDbEntity
  8
P-PIPE-____-OTLN
100
AcDbVertex
100
AcDb3dPolylineVertex
 10
-6313.914282096256
 20
-3411.969946931173
 30
0.0
 70
    32
  0
SEQEND
  5
331
330
328
100
AcDbEntity
  8
P-PIPE-____-OTLN
  0
POLYLINE
  5
332
330
78
100
AcDbEntity
  8
P-PIPE-____-OTLN
100
AcDb3dPolyline
 66
     1
 10
0.0
 20
0.0
 30
0.0
 70
     8
  0
VERTEX
  5
333
330
332
100
AcDbEntity
  8
P-PIPE-____-OTLN
100
AcDbVertex
100
AcDb3dPolylineVertex
 10
-6434.755358752631
 20
-3411.101259457428
 30
0.0
 70
    32
  0
VERTEX
  5
334
330
332
100
AcDbEntity
  8
P-PIPE-____-OTLN
100
AcDbVertex
100
AcDb3dPolylineVertex
 10
-6429.347176643829
 20
-3414.546313960904
 30
0.0
 70
    32
  0
VERTEX
  5
335
330
332
100
AcDbEntity
  8
P-PIPE-____-OTLN
100
AcDbVertex
100
AcDb3dPolylineVertex
 10
-6402.724372590019
 20
-3424.816676049898
 30
0.0
 70
    32
  0
VERTEX
  5
336
330
332
100
AcDbEntity
  8
P-PIPE-____-OTLN
100
AcDbVertex
100
AcDb3dPolylineVertex
 10
-6371.320634013539
 20
-3428.423147613852
 30
0.0
 70
    32
  0
VERTEX
  5
337
330
332
100
AcDbEntity
  8
P-PIPE-____-OTLN
100
AcDbVertex
100
AcDb3dPolylineVertex
 10
-6339.91689543706
 20
-3424.816676049897
 30
0.0
 70
    32
  0
VERTEX
  5
338
330
332
100
AcDbEntity
  8
P-PIPE-____-OTLN
100
AcDbVertex
100
AcDb3dPolylineVertex
 10
-6325.527131395254
 20
-3420.360126458926
 30
0.0
 70
    32
  0
SEQEND
  5
339
330
332
100
AcDbEntity
  8
P-PIPE-____-OTLN
  0
LINE
  5
33A
330
78
100
AcDbEntity
  8
P-PIPE-____-OTLN
100
AcDbLine
 10
-6319.288898966922
 20
-3417.681894768831
 30
0.0
 11
-6319.261100818113
 21
-3417.668729357245
 31
0.0
  0
POLYLINE
  5
33B
330
78
100
AcDbEntity
  8
P-PIPE-____-OTLN
100
AcDb3dPolyline
 66
     1
 10
0.0
 20
0.0
 30
0.0
 70
     8
  0
VERTEX
  5
33C
330
33B
100
AcDbEntity
  8
P-PIPE-____-OTLN
100
AcDbVertex
100
AcDb3dPolylineVertex
 10
-6309.462908870018
 20
-3430.461631789695
 30
0.0
 70
    32
  0
VERTEX
  5
33D
330
33B
100
AcDbEntity
  8
P-PIPE-____-OTLN
100
AcDbVertex
100
AcDb3dPolylineVertex
 10
-6292.036798138182
 20
-3416.093077935394
 30
0.0
 70
    32
  0
VERTEX
  5
33E
330
33B
100
AcDbEntity
  8
P-PIPE-____-OTLN
100
AcDbVertex
100
AcDb3dPolylineVertex
 10
-6284.173488117714
 20
-3399.149999600845
 30
0.0
 70
    32
  0
VERTEX
  5
33F
330
33B
100
AcDbEntity
  8
P-PIPE-____-OTLN
100
AcDbVertex
100
AcDb3dPolylineVertex
 10
-6286.821410047174
 20
-3381.675982086399
 30
0.0
 70
    32
  0
SEQEND
  5
340
330
33B
100
AcDbEntity
  8
P-PIPE-____-OTLN
  0
POLYLINE
  5
341
330
78
100
AcDbEntity
  8
P-PIPE-____-OTLN
100
AcDb3dPolyline
 66
     1
 10
0.0
 20
0.0
 30
0.0
 70
     8
  0
VERTEX
  5
342
330
341
100
AcDbEntity
  8
P-PIPE-____-OTLN
100
AcDbVertex
100
AcDb3dPolylineVertex
 10
-6455.790751940462
 20
-3381.680484806373
 30
0.0
 70
    32
  0
VERTEX
  5
343
330
341
100
AcDbEntity
  8
P-PIPE-____-OTLN
100
AcDbVertex
100
AcDb3dPolylineVertex
 10
-6458.467779909367
 20
-3390.346115452406
 30
0.0
 70
    32
  0
VERTEX
  5
344
330
341
100
AcDbEntity
  8
P-PIPE-____-OTLN
100
AcDbVertex
100
AcDb3dPolylineVertex
 10
-6455.819857979903
 20
-3407.820132966853
 30
0.0
 70
    32
  0
VERTEX
  5
345
330
341
100
AcDbEntity
  8
P-PIPE-____-OTLN
100
AcDbVertex
100
AcDb3dPolylineVertex
 10
-6442.980082564371
 20
-3423.71746525992
 30
0.0
 70
    32
  0
VERTEX
  5
346
330
341
100
AcDbEntity
  8
P-PIPE-____-OTLN
100
AcDbVertex
100
AcDb3dPolylineVertex
 10
-6421.497120072782
 20
-3436.12065943743
 30
0.0
 70
    32
  0
VERTEX
  5
347
330
341
100
AcDbEntity
  8
P-PIPE-____-OTLN
100
AcDbVertex
100
AcDb3dPolylineVertex
 10
-6393.962132836382
 20
-3443.533707229922
 30
0.0
 70
    32
  0
VERTEX
  5
348
330
341
100
AcDbEntity
  8
P-PIPE-____-OTLN
100
AcDbVertex
100
AcDb3dPolylineVertex
 10
-6363.696246689015
 20
-3445.062485668689
 30
0.0
 70
    32
  0
VERTEX
  5
349
330
341
100
AcDbEntity
  8
P-PIPE-____-OTLN
100
AcDbVertex
100
AcDb3dPolylineVertex
 10
-6334.349974176957
 20
-3440.52260151165
 30
0.0
 70
    32
  0
VERTEX
  5
34A
330
341
100
AcDbEntity
  8
P-PIPE-____-OTLN
100
AcDbVertex
100
AcDb3dPolylineVertex
 10
-6309.462908870019
 20
-3430.461631789695
 30
0.0
 70
    32
  0
SEQEND
  5
34B
330
341
100
AcDbEntity
  8
P-PIPE-____-OTLN
  0
POLYLINE
  5
34C
330
78
100
AcDbEntity
  8
P-PIPE-____-OTLN
100
AcDb3dPolyline
 66
     1
 10
0.0
 20
0.0
 30
0.0
 70
     8
  0
VERTEX
  5
34D
330
34C
100
AcDbEntity
  8
P-PIPE-____-OTLN
100
AcDbVertex
100
AcDb3dPolylineVertex
 10
-6303.816371959423
 20
-3433.721661395015
 30
0.0
 70
    32
  0
VERTEX
  5
34E
330
34C
100
AcDbEntity
  8
P-PIPE-____-OTLN
100
AcDbVertex
100
AcDb3dPolylineVertex
 10
-6284.799559706847
 20
-3418.041507906199
 30
0.0
 70
    32
  0
VERTEX
  5
34F
330
34C
100
AcDbEntity
  8
P-PIPE-____-OTLN
100
AcDbVertex
100
AcDb3dPolylineVertex
 10
-6276.218465930718
 20
-3399.551820526892
 30
0.0
 70
    32
  0
VERTEX
  5
350
330
34C
100
AcDbEntity
  8
P-PIPE-____-OTLN
100
AcDbVertex
100
AcDb3dPolylineVertex
 10
-6279.108097183896
 20
-3380.482728433762
 30
0.0
 70
    32
  0
VERTEX
  5
351
330
34C
100
AcDbEntity
  8
P-PIPE-____-OTLN
100
AcDbVertex
100
AcDb3dPolylineVertex
 10
-6293.119921290831
 20
-3363.134245563066
 30
0.0
 70
    32
  0
VERTEX
  5
352
330
34C
100
AcDbEntity
  8
P-PIPE-____-OTLN
100
AcDbVertex
100
AcDb3dPolylineVertex
 10
-6294.563966123785
 20
-3361.975789141077
 30
0.0
 70
    32
  0
SEQEND
  5
353
330
34C
100
AcDbEntity
  8
P-PIPE-____-OTLN
  0
POLYLINE
  5
354
330
78
100
AcDbEntity
  8
P-PIPE-____-OTLN
100
AcDb3dPolyline
 66
     1
 10
0.0
 20
0.0
 30
0.0
 70
     8
  0
VERTEX
  5
355
330
354
100
AcDbEntity
  8
P-PIPE-____-OTLN
100
AcDbVertex
100
AcDb3dPolylineVertex
 10
-6448.052289543451
 20
-3361.956270797934
 30
0.0
 70
    32
  0
VERTEX
  5
356
330
354
100
AcDbEntity
  8
P-PIPE-____-OTLN
100
AcDbVertex
100
AcDb3dPolylineVertex
 10
-6457.841708320231
 20
-3371.454607147052
 30
0.0
 70
    32
  0
VERTEX
  5
357
330
354
100
AcDbEntity
  8
P-PIPE-____-OTLN
100
AcDbVertex
100
AcDb3dPolylineVertex
 10
-6466.422802096359
 20
-3389.944294526358
 30
0.0
 70
    32
  0
VERTEX
  5
358
330
354
100
AcDbEntity
  8
P-PIPE-____-OTLN
100
AcDbVertex
100
AcDb3dPolylineVertex
 10
-6463.533170843182
 20
-3409.013386619488
 30
0.0
 70
    32
  0
VERTEX
  5
359
330
354
100
AcDbEntity
  8
P-PIPE-____-OTLN
100
AcDbVertex
100
AcDb3dPolylineVertex
 10
-6449.521346736246
 20
-3426.361869490185
 30
0.0
 70
    32
  0
VERTEX
  5
35A
330
354
100
AcDbEntity
  8
P-PIPE-____-OTLN
100
AcDbVertex
100
AcDb3dPolylineVertex
 10
-6426.07736255535
 20
-3439.897260067902
 30
0.0
 70
    32
  0
VERTEX
  5
35B
330
354
100
AcDbEntity
  8
P-PIPE-____-OTLN
100
AcDbVertex
100
AcDb3dPolylineVertex
 10
-6396.028908789067
 20
-3447.986990487879
 30
0.0
 70
    32
  0
VERTEX
  5
35C
330
354
100
AcDbEntity
  8
P-PIPE-____-OTLN
100
AcDbVertex
100
AcDb3dPolylineVertex
 10
-6363.000272429555
 20
-3449.655319869759
 30
0.0
 70
    32
  0
VERTEX
  5
35D
330
354
100
AcDbEntity
  8
P-PIPE-____-OTLN
100
AcDbVertex
100
AcDb3dPolylineVertex
 10
-6330.975194472531
 20
-3444.70102306817
 30
0.0
 70
    32
  0
VERTEX
  5
35E
330
354
100
AcDbEntity
  8
P-PIPE-____-OTLN
100
AcDbVertex
100
AcDb3dPolylineVertex
 10
-6303.816371959423
 20
-3433.721661395015
 30
0.0
 70
    32
  0
SEQEND
  5
35F
330
354
100
AcDbEntity
  8
P-PIPE-____-OTLN
  0
POLYLINE
  5
360
330
78
100
AcDbEntity
  8
P-PIPE-____-OTLN
100
AcDb3dPolyline
 66
     1
 10
0.0
 20
0.0
 30
0.0
 70
     8
  0
VERTEX
  5
361
330
360
100
AcDbEntity
  8
P-PIPE-____-OTLN
100
AcDbVertex
100
AcDb3dPolylineVertex
 10
-6303.012841526256
 20
-3436.226821359225
 30
0.0
 70
    32
  0
VERTEX
  5
362
330
360
100
AcDbEntity
  8
P-PIPE-____-OTLN
100
AcDbVertex
100
AcDb3dPolylineVertex
 10
-6283.769664494305
 20
-3420.36002068486
 30
0.0
 70
    32
  0
VERTEX
  5
363
330
360
100
AcDbEntity
  8
P-PIPE-____-OTLN
100
AcDbVertex
100
AcDb3dPolylineVertex
 10
-6275.086426501069
 20
-3401.650243105958
 30
0.0
 70
    32
  0
VERTEX
  5
364
330
360
100
AcDbEntity
  8
P-PIPE-____-OTLN
100
AcDbVertex
100
AcDb3dPolylineVertex
 10
-6278.010454199476
 20
-3382.354163925444
 30
0.0
 70
    32
  0
VERTEX
  5
365
330
360
100
AcDbEntity
  8
P-PIPE-____-OTLN
100
AcDbVertex
100
AcDb3dPolylineVertex
 10
-6280.544629242714
 20
-3377.713782499977
 30
0.0
 70
    32
  0
SEQEND
  5
366
330
360
100
AcDbEntity
  8
P-PIPE-____-OTLN
  0
POLYLINE
  5
367
330
78
100
AcDbEntity
  8
P-PIPE-____-OTLN
100
AcDb3dPolyline
 66
     1
 10
0.0
 20
0.0
 30
0.0
 70
     8
  0
VERTEX
  5
368
330
367
100
AcDbEntity
  8
P-PIPE-____-OTLN
100
AcDbVertex
100
AcDb3dPolylineVertex
 10
-6462.096638784365
 20
-3377.713782499979
 30
0.0
 70
    32
  0
VERTEX
  5
369
330
367
100
AcDbEntity
  8
P-PIPE-____-OTLN
100
AcDbVertex
100
AcDb3dPolylineVertex
 10
-6467.554841526009
 20
-3391.928354851931
 30
0.0
 70
    32
  0
VERTEX
  5
36A
330
367
100
AcDbEntity
  8
P-PIPE-____-OTLN
100
AcDbVertex
100
AcDb3dPolylineVertex
 10
-6464.630813827601
 20
-3411.224434032447
 30
0.0
 70
    32
  0
VERTEX
  5
36B
330
367
100
AcDbEntity
  8
P-PIPE-____-OTLN
100
AcDbVertex
100
AcDb3dPolylineVertex
 10
-6450.45220133203
 20
-3428.779422885605
 30
0.0
 70
    32
  0
VERTEX
  5
36C
330
367
100
AcDbEntity
  8
P-PIPE-____-OTLN
100
AcDbVertex
100
AcDb3dPolylineVertex
 10
-6426.729153960295
 20
-3442.475930671674
 30
0.0
 70
    32
  0
VERTEX
  5
36D
330
367
100
AcDbEntity
  8
P-PIPE-____-OTLN
100
AcDbVertex
100
AcDb3dPolylineVertex
 10
-6396.323021340319
 20
-3450.661956412727
 30
0.0
 70
    32
  0
VERTEX
  5
36E
330
367
100
AcDbEntity
  8
P-PIPE-____-OTLN
100
AcDbVertex
100
AcDb3dPolylineVertex
 10
-6362.901231812797
 20
-3452.35014459152
 30
0.0
 70
    32
  0
VERTEX
  5
36F
330
367
100
AcDbEntity
  8
P-PIPE-____-OTLN
100
AcDbVertex
100
AcDb3dPolylineVertex
 10
-6330.494946447824
 20
-3447.336874798688
 30
0.0
 70
    32
  0
VERTEX
  5
370
330
367
100
AcDbEntity
  8
P-PIPE-____-OTLN
100
AcDbVertex
100
AcDb3dPolylineVertex
 10
-6303.012841526256
 20
-3436.226821359225
 30
0.0
 70
    32
  0
SEQEND
  5
371
330
367
100
AcDbEntity
  8
P-PIPE-____-OTLN
  0
LINE
  5
372
330
78
100
AcDbEntity
  8
P-PIPE-____-OTLN
100
AcDbLine
 10
-6302.213713999573
 20
-3438.718254419522
 30
0.0
 11
-6282.745412543203
 21
-3422.665829283911
 31
0.0
  0
LINE
  5
373
330
78
100
AcDbEntity
  8
P-PIPE-____-OTLN
100
AcDbLine
 10
-6281.180171111435
 20
-3420.623252258172
 30
0.0
 11
-6279.482647856208
 21
-3418.118035002271
 31
0.0
  0
POLYLINE
  5
374
330
78
100
AcDbEntity
  8
P-PIPE-____-OTLN
100
AcDb3dPolyline
 66
     1
 10
0.0
 20
0.0
 30
0.0
 70
     8
  0
VERTEX
  5
375
330
374
100
AcDbEntity
  8
P-PIPE-____-OTLN
100
AcDbVertex
100
AcDb3dPolylineVertex
 10
-6461.613176320458
 20
-3420.412484016753
 30
0.0
 70
    32
  0
VERTEX
  5
376
330
374
100
AcDbEntity
  8
P-PIPE-____-OTLN
100
AcDbVertex
100
AcDb3dPolylineVertex
 10
-6451.377955354685
 20
-3431.183729413104
 30
0.0
 70
    32
  0
VERTEX
  5
377
330
374
100
AcDbEntity
  8
P-PIPE-____-OTLN
100
AcDbVertex
100
AcDb3dPolylineVertex
 10
-6427.377373905486
 20
-3445.040471573506
 30
0.0
 70
    32
  0
VERTEX
  5
378
330
374
100
AcDbEntity
  8
P-PIPE-____-OTLN
100
AcDbVertex
100
AcDb3dPolylineVertex
 10
-6396.615522315949
 20
-3453.322264990042
 30
0.0
 70
    32
  0
VERTEX
  5
379
330
374
100
AcDbEntity
  8
P-PIPE-____-OTLN
100
AcDbVertex
100
AcDb3dPolylineVertex
 10
-6362.802733884349
 20
-3455.030203150422
 30
0.0
 70
    32
  0
VERTEX
  5
37A
330
374
100
AcDbEntity
  8
P-PIPE-____-OTLN
100
AcDbVertex
100
AcDb3dPolylineVertex
 10
-6330.017329919145
 20
-3449.958283506023
 30
0.0
 70
    32
  0
VERTEX
  5
37B
330
374
100
AcDbEntity
  8
P-PIPE-____-OTLN
100
AcDbVertex
100
AcDb3dPolylineVertex
 10
-6302.213713999573
 20
-3438.718254419522
 30
0.0
 70
    32
  0
SEQEND
  5
37C
330
374
100
AcDbEntity
  8
P-PIPE-____-OTLN
  0
POLYLINE
  5
37D
330
78
100
AcDbEntity
  8
P-PIPE-____-OTLN
100
AcDb3dPolyline
 66
     1
 10
0.0
 20
0.0
 30
0.0
 70
     8
  0
VERTEX
  5
37E
330
37D
100
AcDbEntity
  8
P-PIPE-____-OTLN
100
AcDbVertex
100
AcDb3dPolylineVertex
 10
-6296.745304147559
 20
-3455.767069080064
 30
0.0
 70
    32
  0
VERTEX
  5
37F
330
37D
100
AcDbEntity
  8
P-PIPE-____-OTLN
100
AcDbVertex
100
AcDb3dPolylineVertex
 10
-6277.350236299932
 20
-3440.354691674546
 30
0.0
 70
    32
  0
VERTEX
  5
380
330
37D
100
AcDbEntity
  8
P-PIPE-____-OTLN
100
AcDbVertex
100
AcDb3dPolylineVertex
 10
-6267.153645710774
 20
-3422.236355391087
 30
0.0
 70
    32
  0
VERTEX
  5
381
330
37D
100
AcDbEntity
  8
P-PIPE-____-OTLN
100
AcDbVertex
100
AcDb3dPolylineVertex
 10
-6267.153645710774
 20
-3403.185609222983
 30
0.0
 70
    32
  0
VERTEX
  5
382
330
37D
100
AcDbEntity
  8
P-PIPE-____-OTLN
100
AcDbVertex
100
AcDb3dPolylineVertex
 10
-6271.477203922827
 20
-3393.138193594797
 30
0.0
 70
    32
  0
SEQEND
  5
383
330
37D
100
AcDbEntity
  8
P-PIPE-____-OTLN
  0
POLYLINE
  5
384
330
78
100
AcDbEntity
  8
P-PIPE-____-OTLN
100
AcDb3dPolyline
 66
     1
 10
0.0
 20
0.0
 30
0.0
 70
     8
  0
VERTEX
  5
385
330
384
100
AcDbEntity
  8
P-PIPE-____-OTLN
100
AcDbVertex
100
AcDb3dPolylineVertex
 10
-6471.164064104249
 20
-3393.1381935948
 30
0.0
 70
    32
  0
VERTEX
  5
386
330
384
100
AcDbEntity
  8
P-PIPE-____-OTLN
100
AcDbVertex
100
AcDb3dPolylineVertex
 10
-6475.487622316305
 20
-3403.185609222986
 30
0.0
 70
    32
  0
VERTEX
  5
387
330
384
100
AcDbEntity
  8
P-PIPE-____-OTLN
100
AcDbVertex
100
AcDb3dPolylineVertex
 10
-6475.487622316302
 20
-3422.236355391088
 30
0.0
 70
    32
  0
VERTEX
  5
388
330
384
100
AcDbEntity
  8
P-PIPE-____-OTLN
100
AcDbVertex
100
AcDb3dPolylineVertex
 10
-6465.291031727145
 20
-3440.354691674548
 30
0.0
 70
    32
  0
VERTEX
  5
389
330
384
100
AcDbEntity
  8
P-PIPE-____-OTLN
100
AcDbVertex
100
AcDb3dPolylineVertex
 10
-6445.895963879518
 20
-3455.767069080066
 30
0.0
 70
    32
  0
VERTEX
  5
38A
330
384
100
AcDbEntity
  8
P-PIPE-____-OTLN
100
AcDbVertex
100
AcDb3dPolylineVertex
 10
-6419.200943147733
 20
-3466.964816722844
 30
0.0
 70
    32
  0
VERTEX
  5
38B
330
384
100
AcDbEntity
  8
P-PIPE-____-OTLN
100
AcDbVertex
100
AcDb3dPolylineVertex
 10
-6387.819064156165
 20
-3472.851821044311
 30
0.0
 70
    32
  0
VERTEX
  5
38C
330
384
100
AcDbEntity
  8
P-PIPE-____-OTLN
100
AcDbVertex
100
AcDb3dPolylineVertex
 10
-6354.822203870913
 20
-3472.851821044311
 30
0.0
 70
    32
  0
VERTEX
  5
38D
330
384
100
AcDbEntity
  8
P-PIPE-____-OTLN
100
AcDbVertex
100
AcDb3dPolylineVertex
 10
-6323.440324879342
 20
-3466.964816722844
 30
0.0
 70
    32
  0
VERTEX
  5
38E
330
384
100
AcDbEntity
  8
P-PIPE-____-OTLN
100
AcDbVertex
100
AcDb3dPolylineVertex
 10
-6296.745304147559
 20
-3455.767069080064
 30
0.0
 70
    32
  0
SEQEND
  5
38F
330
384
100
AcDbEntity
  8
P-PIPE-____-OTLN
  0
POLYLINE
  5
390
330
78
100
AcDbEntity
  8
P-PIPE-____-OTLN
100
AcDb3dPolyline
 66
     1
 10
0.0
 20
0.0
 30
0.0
 70
     8
  0
VERTEX
  5
391
330
390
100
AcDbEntity
  8
P-PIPE-____-OTLN
100
AcDbVertex
100
AcDb3dPolylineVertex
 10
-6285.614059222669
 20
-3462.193696333865
 30
0.0
 70
    32
  0
VERTEX
  5
392
330
390
100
AcDbEntity
  8
P-PIPE-____-OTLN
100
AcDbVertex
100
AcDb3dPolylineVertex
 10
-6263.324049429297
 20
-3444.480840364136
 30
0.0
 70
    32
  0
VERTEX
  5
393
330
390
100
AcDbEntity
  8
P-PIPE-____-OTLN
100
AcDbVertex
100
AcDb3dPolylineVertex
 10
-6251.605497791484
 20
-3423.658129334159
 30
0.0
 70
    32
  0
VERTEX
  5
394
330
390
100
AcDbEntity
  8
P-PIPE-____-OTLN
100
AcDbVertex
100
AcDb3dPolylineVertex
 10
-6251.605497791484
 20
-3401.76383527991
 30
0.0
 70
    32
  0
VERTEX
  5
395
330
390
100
AcDbEntity
  8
P-PIPE-____-OTLN
100
AcDbVertex
100
AcDb3dPolylineVertex
 10
-6263.324049429297
 20
-3380.941124249935
 30
0.0
 70
    32
  0
VERTEX
  5
396
330
390
100
AcDbEntity
  8
P-PIPE-____-OTLN
100
AcDbVertex
100
AcDb3dPolylineVertex
 10
-6285.61405922267
 20
-3363.228268280205
 30
0.0
 70
    32
  0
VERTEX
  5
397
330
390
100
AcDbEntity
  8
P-PIPE-____-OTLN
100
AcDbVertex
100
AcDb3dPolylineVertex
 10
-6299.053799333052
 20
-3356.530503698569
 30
0.0
 70
    32
  0
SEQEND
  5
398
330
390
100
AcDbEntity
  8
P-PIPE-____-OTLN
  0
LINE
  5
399
330
78
100
AcDbEntity
  8
P-PIPE-____-OTLN
100
AcDbLine
 10
-6443.585845436444
 20
-3356.529807693802
 30
0.0
 11
-6457.027208804408
 21
-3363.228268280206
 31
0.0
  0
POLYLINE
  5
39A
330
78
100
AcDbEntity
  8
P-PIPE-____-OTLN
100
AcDb3dPolyline
 66
     1
 10
0.0
 20
0.0
 30
0.0
 70
     8
  0
VERTEX
  5
39B
330
39A
100
AcDbEntity
  8
P-PIPE-____-OTLN
100
AcDbVertex
100
AcDb3dPolylineVertex
 10
-6457.027208804409
 20
-3363.228268280206
 30
0.0
 70
    32
  0
VERTEX
  5
39C
330
39A
100
AcDbEntity
  8
P-PIPE-____-OTLN
100
AcDbVertex
100
AcDb3dPolylineVertex
 10
-6479.317218597779
 20
-3380.941124249936
 30
0.0
 70
    32
  0
VERTEX
  5
39D
330
39A
100
AcDbEntity
  8
P-PIPE-____-OTLN
100
AcDbVertex
100
AcDb3dPolylineVertex
 10
-6491.035770235594
 20
-3401.763835279913
 30
0.0
 70
    32
  0
VERTEX
  5
39E
330
39A
100
AcDbEntity
  8
P-PIPE-____-OTLN
100
AcDbVertex
100
AcDb3dPolylineVertex
 10
-6491.035770235594
 20
-3423.658129334163
 30
0.0
 70
    32
  0
VERTEX
  5
39F
330
39A
100
AcDbEntity
  8
P-PIPE-____-OTLN
100
AcDbVertex
100
AcDb3dPolylineVertex
 10
-6479.317218597779
 20
-3444.480840364137
 30
0.0
 70
    32
  0
VERTEX
  5
3A0
330
39A
100
AcDbEntity
  8
P-PIPE-____-OTLN
100
AcDbVertex
100
AcDb3dPolylineVertex
 10
-6457.027208804408
 20
-3462.193696333867
 30
0.0
 70
    32
  0
VERTEX
  5
3A1
330
39A
100
AcDbEntity
  8
P-PIPE-____-OTLN
100
AcDbVertex
100
AcDb3dPolylineVertex
 10
-6426.347642317686
 20
-3475.062839488309
 30
0.0
 70
    32
  0
VERTEX
  5
3A2
330
39A
100
AcDbEntity
  8
P-PIPE-____-OTLN
100
AcDbVertex
100
AcDb3dPolylineVertex
 10
-6390.281648862443
 20
-3481.828548430915
 30
0.0
 70
    32
  0
VERTEX
  5
3A3
330
39A
100
AcDbEntity
  8
P-PIPE-____-OTLN
100
AcDbVertex
100
AcDb3dPolylineVertex
 10
-6352.359619164631
 20
-3481.828548430914
 30
0.0
 70
    32
  0
VERTEX
  5
3A4
330
39A
100
AcDbEntity
  8
P-PIPE-____-OTLN
100
AcDbVertex
100
AcDb3dPolylineVertex
 10
-6316.293625709391
 20
-3475.062839488308
 30
0.0
 70
    32
  0
VERTEX
  5
3A5
330
39A
100
AcDbEntity
  8
P-PIPE-____-OTLN
100
AcDbVertex
100
AcDb3dPolylineVertex
 10
-6285.614059222669
 20
-3462.193696333865
 30
0.0
 70
    32
  0
SEQEND
  5
3A6
330
39A
100
AcDbEntity
  8
P-PIPE-____-OTLN
  0
POLYLINE
  5
3A7
330
78
100
AcDbEntity
  8
P-PIPE-____-OTLN
100
AcDb3dPolyline
 66
     1
 10
0.0
 20
0.0
 30
0.0
 70
     8
  0
VERTEX
  5
3A8
330
3A7
100
AcDbEntity
  8
P-PIPE-____-OTLN
100
AcDbVertex
100
AcDb3dPolylineVertex
 10
-6285.402306120791
 20
-3464.35762240743
 30
0.0
 70
    32
  0
VERTEX
  5
3A9
330
3A7
100
AcDbEntity
  8
P-PIPE-____-OTLN
100
AcDbVertex
100
AcDb3dPolylineVertex
 10
-6263.057224954819
 20
-3446.601003725167
 30
0.0
 70
    32
  0
VERTEX
  5
3AA
330
3A7
100
AcDbEntity
  8
P-PIPE-____-OTLN
100
AcDbVertex
100
AcDb3dPolylineVertex
 10
-6251.309720583041
 20
-3425.726846541138
 30
0.0
 70
    32
  0
VERTEX
  5
3AB
330
3A7
100
AcDbEntity
  8
P-PIPE-____-OTLN
100
AcDbVertex
100
AcDb3dPolylineVertex
 10
-6250.188334563777
 20
-3409.248588541955
 30
0.0
 70
    32
  0
SEQEND
  5
3AC
330
3A7
100
AcDbEntity
  8
P-PIPE-____-OTLN
  0
POLYLINE
  5
3AD
330
78
100
AcDbEntity
  8
P-PIPE-____-OTLN
100
AcDb3dPolyline
 66
     1
 10
0.0
 20
0.0
 30
0.0
 70
     8
  0
VERTEX
  5
3AE
330
3AD
100
AcDbEntity
  8
P-PIPE-____-OTLN
100
AcDbVertex
100
AcDb3dPolylineVertex
 10
-6492.452933463301
 20
-3409.248588541958
 30
0.0
 70
    32
  0
VERTEX
  5
3AF
330
3AD
100
AcDbEntity
  8
P-PIPE-____-OTLN
100
AcDbVertex
100
AcDb3dPolylineVertex
 10
-6491.331547444037
 20
-3425.726846541139
 30
0.0
 70
    32
  0
VERTEX
  5
3B0
330
3AD
100
AcDbEntity
  8
P-PIPE-____-OTLN
100
AcDbVertex
100
AcDb3dPolylineVertex
 10
-6479.584043072256
 20
-3446.601003725169
 30
0.0
 70
    32
  0
VERTEX
  5
3B1
330
3AD
100
AcDbEntity
  8
P-PIPE-____-OTLN
100
AcDbVertex
100
AcDb3dPolylineVertex
 10
-6457.238961906284
 20
-3464.357622407432
 30
0.0
 70
    32
  0
VERTEX
  5
3B2
330
3AD
100
AcDbEntity
  8
P-PIPE-____-OTLN
100
AcDbVertex
100
AcDb3dPolylineVertex
 10
-6426.48359617798
 20
-3477.258561033668
 30
0.0
 70
    32
  0
VERTEX
  5
3B3
330
3AD
100
AcDbEntity
  8
P-PIPE-____-OTLN
100
AcDbVertex
100
AcDb3dPolylineVertex
 10
-6390.328495370064
 20
-3484.040985845022
 30
0.0
 70
    32
  0
VERTEX
  5
3B4
330
3AD
100
AcDbEntity
  8
P-PIPE-____-OTLN
100
AcDbVertex
100
AcDb3dPolylineVertex
 10
-6352.312772657013
 20
-3484.040985845021
 30
0.0
 70
    32
  0
VERTEX
  5
3B5
330
3AD
100
AcDbEntity
  8
P-PIPE-____-OTLN
100
AcDbVertex
100
AcDb3dPolylineVertex
 10
-6316.157671849096
 20
-3477.258561033668
 30
0.0
 70
    32
  0
VERTEX
  5
3B6
330
3AD
100
AcDbEntity
  8
P-PIPE-____-OTLN
100
AcDbVertex
100
AcDb3dPolylineVertex
 10
-6285.402306120791
 20
-3464.35762240743
 30
0.0
 70
    32
  0
SEQEND
  5
3B7
330
3AD
100
AcDbEntity
  8
P-PIPE-____-OTLN
  0
LINE
  5
3B8
330
78
100
AcDbEntity
  8
P-PIPE-____-OTLN
100
AcDbLine
 10
-6361.759446642056
 20
-3487.314522883649
 30
0.0
 11
-6352.257207170136
 21
-3486.665197730689
 31
0.0
  0
POLYLINE
  5
3B9
330
78
100
AcDbEntity
  8
P-PIPE-____-OTLN
100
AcDb3dPolyline
 66
     1
 10
0.0
 20
0.0
 30
0.0
 70
     8
  0
VERTEX
  5
3BA
330
3B9
100
AcDbEntity
  8
P-PIPE-____-OTLN
100
AcDbVertex
100
AcDb3dPolylineVertex
 10
-6278.542991410803
 20
-3534.453643745968
 30
0.0
 70
    32
  0
VERTEX
  5
3BB
330
3B9
100
AcDbEntity
  8
P-PIPE-____-OTLN
100
AcDbVertex
100
AcDb3dPolylineVertex
 10
-6256.162655359508
 20
-3517.192817011301
 30
0.0
 70
    32
  0
VERTEX
  5
3BC
330
3B9
100
AcDbEntity
  8
P-PIPE-____-OTLN
100
AcDbVertex
100
AcDb3dPolylineVertex
 10
-6243.111733867893
 20
-3496.990826113695
 30
0.0
 70
    32
  0
VERTEX
  5
3BD
330
3B9
100
AcDbEntity
  8
P-PIPE-____-OTLN
100
AcDbVertex
100
AcDb3dPolylineVertex
 10
-6240.447534978389
 20
-3475.484316209804
 30
0.0
 70
    32
  0
VERTEX
  5
3BE
330
3B9
100
AcDbEntity
  8
P-PIPE-____-OTLN
100
AcDbVertex
100
AcDb3dPolylineVertex
 10
-6240.617746790963
 20
-3474.25801614933
 30
0.0
 70
    32
  0
SEQEND
  5
3BF
330
3B9
100
AcDbEntity
  8
P-PIPE-____-OTLN
  0
POLYLINE
  5
3C0
330
78
100
AcDbEntity
  8
P-PIPE-____-OTLN
100
AcDb3dPolyline
 66
     1
 10
0.0
 20
0.0
 30
0.0
 70
     8
  0
VERTEX
  5
3C1
330
3C0
100
AcDbEntity
  8
P-PIPE-____-OTLN
100
AcDbVertex
100
AcDb3dPolylineVertex
 10
-6502.001342107494
 20
-3474.236555551287
 30
0.0
 70
    32
  0
VERTEX
  5
3C2
330
3C0
100
AcDbEntity
  8
P-PIPE-____-OTLN
100
AcDbVertex
100
AcDb3dPolylineVertex
 10
-6502.193733048688
 20
-3486.292577419195
 30
0.0
 70
    32
  0
VERTEX
  5
3C3
330
3C0
100
AcDbEntity
  8
P-PIPE-____-OTLN
100
AcDbVertex
100
AcDb3dPolylineVertex
 10
-6494.255371786652
 20
-3507.361276801096
 30
0.0
 70
    32
  0
VERTEX
  5
3C4
330
3C0
100
AcDbEntity
  8
P-PIPE-____-OTLN
100
AcDbVertex
100
AcDb3dPolylineVertex
 10
-6476.357569191275
 20
-3526.285304937465
 30
0.0
 70
    32
  0
VERTEX
  5
3C5
330
3C0
100
AcDbEntity
  8
P-PIPE-____-OTLN
100
AcDbVertex
100
AcDb3dPolylineVertex
 10
-6449.950298786506
 20
-3541.531549614222
 30
0.0
 70
    32
  0
VERTEX
  5
3C6
330
3C0
100
AcDbEntity
  8
P-PIPE-____-OTLN
100
AcDbVertex
100
AcDb3dPolylineVertex
 10
-6417.17292057045
 20
-3551.864850760565
 30
0.0
 70
    32
  0
VERTEX
  5
3C7
330
3C0
100
AcDbEntity
  8
P-PIPE-____-OTLN
100
AcDbVertex
100
AcDb3dPolylineVertex
 10
-6380.680862791606
 20
-3556.448065772125
 30
0.0
 70
    32
  0
VERTEX
  5
3C8
330
3C0
100
AcDbEntity
  8
P-PIPE-____-OTLN
100
AcDbVertex
100
AcDb3dPolylineVertex
 10
-6343.430494944584
 20
-3554.909889826096
 30
0.0
 70
    32
  0
VERTEX
  5
3C9
330
3C0
100
AcDbEntity
  8
P-PIPE-____-OTLN
100
AcDbVertex
100
AcDb3dPolylineVertex
 10
-6308.439620295885
 20
-3547.374936789737
 30
0.0
 70
    32
  0
VERTEX
  5
3CA
330
3C0
100
AcDbEntity
  8
P-PIPE-____-OTLN
100
AcDbVertex
100
AcDb3dPolylineVertex
 10
-6278.542991410803
 20
-3534.453643745968
 30
0.0
 70
    32
  0
SEQEND
  5
3CB
330
3C0
100
AcDbEntity
  8
P-PIPE-____-OTLN
  0
POLYLINE
  5
3CC
330
78
100
AcDbEntity
  8
P-PIPE-____-OTLN
100
AcDb3dPolyline
 66
     1
 10
0.0
 20
0.0
 30
0.0
 70
     8
  0
VERTEX
  5
3CD
330
3CC
100
AcDbEntity
  8
P-PIPE-____-OTLN
100
AcDbVertex
100
AcDb3dPolylineVertex
 10
-6253.233801555386
 20
-3549.065911321964
 30
0.0
 70
    32
  0
VERTEX
  5
3CE
330
3CC
100
AcDbEntity
  8
P-PIPE-____-OTLN
100
AcDbVertex
100
AcDb3dPolylineVertex
 10
-6226.694391581538
 20
-3529.097194291831
 30
0.0
 70
    32
  0
VERTEX
  5
3CF
330
3CC
100
AcDbEntity
  8
P-PIPE-____-OTLN
100
AcDbVertex
100
AcDb3dPolylineVertex
 10
-6210.011021023267
 20
-3505.843130789842
 30
0.0
 70
    32
  0
VERTEX
  5
3D0
330
3CC
100
AcDbEntity
  8
P-PIPE-____-OTLN
100
AcDbVertex
100
AcDb3dPolylineVertex
 10
-6204.320634013542
 20
-3480.888446814498
 30
0.0
 70
    32
  0
VERTEX
  5
3D1
330
3CC
100
AcDbEntity
  8
P-PIPE-____-OTLN
100
AcDbVertex
100
AcDb3dPolylineVertex
 10
-6210.011021023267
 20
-3455.933762839154
 30
0.0
 70
    32
  0
VERTEX
  5
3D2
330
3CC
100
AcDbEntity
  8
P-PIPE-____-OTLN
100
AcDbVertex
100
AcDb3dPolylineVertex
 10
-6226.694391581538
 20
-3432.679699337165
 30
0.0
 70
    32
  0
VERTEX
  5
3D3
330
3CC
100
AcDbEntity
  8
P-PIPE-____-OTLN
100
AcDbVertex
100
AcDb3dPolylineVertex
 10
-6248.181325541673
 20
-3415.758549150754
 30
0.0
 70
    32
  0
SEQEND
  5
3D4
330
3CC
100
AcDbEntity
  8
P-PIPE-____-OTLN
  0
POLYLINE
  5
3D5
330
78
100
AcDbEntity
  8
P-PIPE-____-OTLN
100
AcDb3dPolyline
 66
     1
 10
0.0
 20
0.0
 30
0.0
 70
     8
  0
VERTEX
  5
3D6
330
3D5
100
AcDbEntity
  8
P-PIPE-____-OTLN
100
AcDbVertex
100
AcDb3dPolylineVertex
 10
-6494.461898426078
 20
-3415.759781853314
 30
0.0
 70
    32
  0
VERTEX
  5
3D7
330
3D5
100
AcDbEntity
  8
P-PIPE-____-OTLN
100
AcDbVertex
100
AcDb3dPolylineVertex
 10
-6515.946876445537
 20
-3432.679699337168
 30
0.0
 70
    32
  0
VERTEX
  5
3D8
330
3D5
100
AcDbEntity
  8
P-PIPE-____-OTLN
100
AcDbVertex
100
AcDb3dPolylineVertex
 10
-6532.630247003808
 20
-3455.933762839157
 30
0.0
 70
    32
  0
VERTEX
  5
3D9
330
3D5
100
AcDbEntity
  8
P-PIPE-____-OTLN
100
AcDbVertex
100
AcDb3dPolylineVertex
 10
-6538.320634013534
 20
-3480.888446814502
 30
0.0
 70
    32
  0
VERTEX
  5
3DA
330
3D5
100
AcDbEntity
  8
P-PIPE-____-OTLN
100
AcDbVertex
100
AcDb3dPolylineVertex
 10
-6532.630247003808
 20
-3505.843130789845
 30
0.0
 70
    32
  0
VERTEX
  5
3DB
330
3D5
100
AcDbEntity
  8
P-PIPE-____-OTLN
100
AcDbVertex
100
AcDb3dPolylineVertex
 10
-6515.946876445537
 20
-3529.097194291835
 30
0.0
 70
    32
  0
VERTEX
  5
3DC
330
3D5
100
AcDbEntity
  8
P-PIPE-____-OTLN
100
AcDbVertex
100
AcDb3dPolylineVertex
 10
-6489.407466471688
 20
-3549.065911321966
 30
0.0
 70
    32
  0
VERTEX
  5
3DD
330
3D5
100
AcDbEntity
  8
P-PIPE-____-OTLN
100
AcDbVertex
100
AcDb3dPolylineVertex
 10
-6454.820634013535
 20
-3564.3884468145
 30
0.0
 70
    32
  0
VERTEX
  5
3DE
330
3D5
100
AcDbEntity
  8
P-PIPE-____-OTLN
100
AcDbVertex
100
AcDb3dPolylineVertex
 10
-6414.543414545658
 20
-3574.020595297309
 30
0.0
 70
    32
  0
VERTEX
  5
3DF
330
3D5
100
AcDbEntity
  8
P-PIPE-____-OTLN
100
AcDbVertex
100
AcDb3dPolylineVertex
 10
-6371.320634013538
 20
-3577.305941769167
 30
0.0
 70
    32
  0
VERTEX
  5
3E0
330
3D5
100
AcDbEntity
  8
P-PIPE-____-OTLN
100
AcDbVertex
100
AcDb3dPolylineVertex
 10
-6328.097853481417
 20
-3574.020595297308
 30
0.0
 70
    32
  0
VERTEX
  5
3E1
330
3D5
100
AcDbEntity
  8
P-PIPE-____-OTLN
100
AcDbVertex
100
AcDb3dPolylineVertex
 10
-6287.820634013539
 20
-3564.388446814499
 30
0.0
 70
    32
  0
VERTEX
  5
3E2
330
3D5
100
AcDbEntity
  8
P-PIPE-____-OTLN
100
AcDbVertex
100
AcDb3dPolylineVertex
 10
-6253.233801555386
 20
-3549.065911321964
 30
0.0
 70
    32
  0
SEQEND
  5
3E3
330
3D5
100
AcDbEntity
  8
P-PIPE-____-OTLN
  0
POLYLINE
  5
3E4
330
78
100
AcDbEntity
  8
P-PIPE-____-OTLN
100
AcDb3dPolyline
 66
     1
 10
0.0
 20
0.0
 30
0.0
 70
     8
  0
VERTEX
  5
3E5
330
3E4
100
AcDbEntity
  8
P-PIPE-____-OTLN
100
AcDbVertex
100
AcDb3dPolylineVertex
 10
-6253.233801555386
 20
-3551.107152774283
 30
0.0
 70
    32
  0
VERTEX
  5
3E6
330
3E4
100
AcDbEntity
  8
P-PIPE-____-OTLN
100
AcDbVertex
100
AcDb3dPolylineVertex
 10
-6226.694391581538
 20
-3531.13843574415
 30
0.0
 70
    32
  0
VERTEX
  5
3E7
330
3E4
100
AcDbEntity
  8
P-PIPE-____-OTLN
100
AcDbVertex
100
AcDb3dPolylineVertex
 10
-6210.011021023267
 20
-3507.884372242163
 30
0.0
 70
    32
  0
VERTEX
  5
3E8
330
3E4
100
AcDbEntity
  8
P-PIPE-____-OTLN
100
AcDbVertex
100
AcDb3dPolylineVertex
 10
-6204.320634013542
 20
-3482.929688266818
 30
0.0
 70
    32
  0
SEQEND
  5
3E9
330
3E4
100
AcDbEntity
  8
P-PIPE-____-OTLN
  0
POLYLINE
  5
3EA
330
78
100
AcDbEntity
  8
P-PIPE-____-OTLN
100
AcDb3dPolyline
 66
     1
 10
0.0
 20
0.0
 30
0.0
 70
     8
  0
VERTEX
  5
3EB
330
3EA
100
AcDbEntity
  8
P-PIPE-____-OTLN
100
AcDbVertex
100
AcDb3dPolylineVertex
 10
-6538.320634013534
 20
-3482.929688266822
 30
0.0
 70
    32
  0
VERTEX
  5
3EC
330
3EA
100
AcDbEntity
  8
P-PIPE-____-OTLN
100
AcDbVertex
100
AcDb3dPolylineVertex
 10
-6532.630247003808
 20
-3507.884372242164
 30
0.0
 70
    32
  0
VERTEX
  5
3ED
330
3EA
100
AcDbEntity
  8
P-PIPE-____-OTLN
100
AcDbVertex
100
AcDb3dPolylineVertex
 10
-6515.946876445537
 20
-3531.138435744155
 30
0.0
 70
    32
  0
VERTEX
  5
3EE
330
3EA
100
AcDbEntity
  8
P-PIPE-____-OTLN
100
AcDbVertex
100
AcDb3dPolylineVertex
 10
-6489.407466471688
 20
-3551.107152774285
 30
0.0
 70
    32
  0
VERTEX
  5
3EF
330
3EA
100
AcDbEntity
  8
P-PIPE-____-OTLN
100
AcDbVertex
100
AcDb3dPolylineVertex
 10
-6454.820634013535
 20
-3566.429688266819
 30
0.0
 70
    32
  0
VERTEX
  5
3F0
330
3EA
100
AcDbEntity
  8
P-PIPE-____-OTLN
100
AcDbVertex
100
AcDb3dPolylineVertex
 10
-6414.543414545658
 20
-3576.061836749629
 30
0.0
 70
    32
  0
VERTEX
  5
3F1
330
3EA
100
AcDbEntity
  8
P-PIPE-____-OTLN
100
AcDbVertex
100
AcDb3dPolylineVertex
 10
-6371.320634013538
 20
-3579.347183221486
 30
0.0
 70
    32
  0
VERTEX
  5
3F2
330
3EA
100
AcDbEntity
  8
P-PIPE-____-OTLN
100
AcDbVertex
100
AcDb3dPolylineVertex
 10
-6328.097853481417
 20
-3576.061836749627
 30
0.0
 70
    32
  0
VERTEX
  5
3F3
330
3EA
100
AcDbEntity
  8
P-PIPE-____-OTLN
100
AcDbVertex
100
AcDb3dPolylineVertex
 10
-6287.820634013539
 20
-3566.429688266818
 30
0.0
 70
    32
  0
VERTEX
  5
3F4
330
3EA
100
AcDbEntity
  8
P-PIPE-____-OTLN
100
AcDbVertex
100
AcDb3dPolylineVertex
 10
-6253.233801555386
 20
-3551.107152774283
 30
0.0
 70
    32
  0
SEQEND
  5
3F5
330
3EA
100
AcDbEntity
  8
P-PIPE-____-OTLN
  0
ENDBLK
  5
3F6
330
78
100
AcDbEntity
  8
0
100
AcDbBlockEnd
  0
ENDSEC
  0
SECTION
  2
ENTITIES
  0
INSERT
  5
73
330
2
100
AcDbEntity
  8
0
370
     5
100
AcDbBlockReference
  2
Viking_Roofspec Revit Components_rvt-1-vik_ass_070 pipe seals 703
 10
0.0
 20
0.0
 30
0.0
1001
REVIT
1002
{
1070
     1
1000
2705_2705
1002
}
1002
{
1070
     5
1000
2705_2704
1002
}
1002
{
1070
     2
1000
2705_-2001352
1002
}
  0
LINE
  5
3F9
330
2
100
AcDbEntity
  8
G-____-____-SYMB
100
AcDbLine
 10
-6923.818728580406
 20
-3515.697283718155
 30
0.0
 11
-6923.818728580406
 21
-3080.580057223008
 31
0.0
1001
REVIT
1002
{
1070
     1
1000
13034
1002
}
1002
{
1070
     2
1000
-2000301
1002
}
  0
LINE
  5
3FB
330
2
100
AcDbEntity
  8
G-____-____-SYMB
100
AcDbLine
 10
-6540.505121642333
 20
-2859.273843073265
 30
0.0
 11
-6923.818728580406
 21
-3080.580057223008
 31
0.0
1001
REVIT
1002
{
1070
     1
1000
13034
1002
}
1002
{
1070
     2
1000
-2000301
1002
}
  0
LINE
  5
3FC
330
2
100
AcDbEntity
  8
G-____-____-SYMB
100
AcDbLine
 10
-6350.476738053956
 20
-3411.59920979117
 30
0.0
 11
-6923.818728580406
 21
-3080.580057223008
 31
0.0
1001
REVIT
1002
{
1070
     1
1000
13034
1002
}
1002
{
1070
     2
1000
-2000301
1002
}
  0
LINE
  5
3FD
330
2
100
AcDbEntity
  8
G-____-____-SYMB
100
AcDbLine
 10
-5967.163131115881
 20
-3625.410222136573
 30
0.0
 11
-6540.505121642333
 21
-3294.391069568411
 31
0.0
1001
REVIT
1002
{
1070
     1
1000
13034
1002
}
1002
{
1070
     2
1000
-2000301
1002
}
  0
LINE
  5
3FE
330
2
100
AcDbEntity
  8
G-____-____-SYMB
100
AcDbLine
 10
-5967.163131115881
 20
-3625.410222136573
 30
0.0
 11
-6350.476738053956
 21
-3846.716436286317
 31
0.0
1001
REVIT
1002
{
1070
     1
1000
13034
1002
}
1002
{
1070
     2
1000
-2000301
1002
}
  0
LINE
  5
3FF
330
2
100
AcDbEntity
  8
G-____-____-SYMB
100
AcDbLine
 10
-5967.163131115881
 20
-3190.292995641427
 30
0.0
 11
-5967.163131115881
 21
-3625.410222136573
 31
0.0
1001
REVIT
1002
{
1070
     1
1000
13034
1002
}
1002
{
1070
     2
1000
-2000301
1002
}
  0
LINE
  5
400
330
2
100
AcDbEntity
  8
G-____-____-SYMB
100
AcDbLine
 10
-6923.818728580406
 20
-3515.697283718155
 30
0.0
 11
-6540.505121642333
 21
-3294.391069568411
 31
0.0
1001
REVIT
1002
{
1070
     1
1000
13034
1002
}
1002
{
1070
     2
1000
-2000301
1002
}
  0
LINE
  5
401
330
2
100
AcDbEntity
  8
G-____-____-SYMB
100
AcDbLine
 10
-6540.505121642333
 20
-2859.273843073265
 30
0.0
 11
-6540.505121642333
 21
-3294.391069568411
 31
0.0
1001
REVIT
1002
{
1070
     1
1000
13034
1002
}
1002
{
1070
     2
1000
-2000301
1002
}
  0
LINE
  5
402
330
2
100
AcDbEntity
  8
G-____-____-SYMB
100
AcDbLine
 10
-6350.476738053956
 20
-3846.716436286317
 30
0.0
 11
-6923.818728580406
 21
-3515.697283718155
 31
0.0
1001
REVIT
1002
{
1070
     1
1000
13034
1002
}
1002
{
1070
     2
1000
-2000301
1002
}
  0
LINE
  5
403
330
2
100
AcDbEntity
  8
G-____-____-SYMB
100
AcDbLine
 10
-6350.476738053956
 20
-3411.59920979117
 30
0.0
 11
-6350.476738053956
 21
-3846.716436286317
 31
0.0
1001
REVIT
1002
{
1070
     1
1000
13034
1002
}
1002
{
1070
     2
1000
-2000301
1002
}
  0
LINE
  5
404
330
2
100
AcDbEntity
  8
G-____-____-SYMB
100
AcDbLine
 10
-5967.163131115881
 20
-3190.292995641427
 30
0.0
 11
-6540.505121642333
 21
-2859.273843073265
 31
0.0
1001
REVIT
1002
{
1070
     1
1000
13034
1002
}
1002
{
1070
     2
1000
-2000301
1002
}
  0
LINE
  5
405
330
2
100
AcDbEntity
  8
G-____-____-SYMB
100
AcDbLine
 10
-5967.163131115881
 20
-3190.292995641427
 30
0.0
 11
-6350.476738053956
 21
-3411.59920979117
 31
0.0
1001
REVIT
1002
{
1070
     1
1000
13034
1002
}
1002
{
1070
     2
1000
-2000301
1002
}
  0
LINE
  5
406
330
2
100
AcDbEntity
  8
A-____-____-IDEN
100
AcDbLine
 10
-6338.293240464842
 20
-3337.307667223002
 30
0.0
 11
-6322.4174245629
 21
-3341.558314496385
 31
0.0
1001
REVIT
1002
{
1070
     1
1000
13045
1002
}
1002
{
1070
     5
1000
21372
1002
}
1002
{
1070
     2
1000
-2005022
1002
}
  0
LINE
  5
408
330
2
100
AcDbEntity
  8
A-____-____-IDEN
100
AcDbLine
 10
-6322.4174245629
 20
-3341.558314496385
 30
0.0
 11
-6322.419056951263
 21
-3333.050927793305
 31
0.0
1001
REVIT
1002
{
1070
     1
1000
13045
1002
}
1002
{
1070
     5
1000
21372
1002
}
1002
{
1070
     2
1000
-2005022
1002
}
  0
LINE
  5
409
330
2
100
AcDbEntity
  8
A-____-____-IDEN
100
AcDbLine
 10
-6322.419056951263
 20
-3333.050927793305
 30
0.0
 11
-6338.293240464842
 21
-3337.307667223002
 31
0.0
1001
REVIT
1002
{
1070
     1
1000
13045
1002
}
1002
{
1070
     5
1000
21372
1002
}
1002
{
1070
     2
1000
-2005022
1002
}
  0
HATCH
  5
40A
330
2
100
AcDbEntity
  8
A-____-____-IDEN
100
AcDbHatch
 10
0.0
 20
0.0
 30
0.0
210
0.0
220
0.0
230
1.0
  2
SOLID
 70
     1
 71
     0
 91
        1
 92
        1
 93
        3
 72
     1
 10
-6338.293240464842
 20
-3337.307667223002
 11
-6322.4174245629
 21
-3341.558314496385
 72
     1
 10
-6322.4174245629
 20
-3341.558314496385
 11
-6322.419056951263
 21
-3333.050927793305
 72
     1
 10
-6322.419056951263
 20
-3333.050927793305
 11
-6338.293240464842
 21
-3337.307667223002
 97
        0
 75
     0
 76
     1
 98
        1
 10
0.0
 20
0.0
450
        0
451
        0
460
0.0
461
0.0
452
        0
462
0.0
453
        0
470

1001
REVIT
1002
{
1070
     1
1000
13045
1002
}
1002
{
1070
     5
1000
21372
1002
}
1002
{
1070
     2
1000
-2005022
1002
}
  0
LINE
  5
40B
330
2
100
AcDbEntity
  8
A-____-____-IDEN
100
AcDbLine
 10
-6338.293240464842
 20
-3337.307667223002
 30
0.0
 11
-6208.002758067373
 21
-3337.282667223011
 31
0.0
1001
REVIT
1002
{
1070
     1
1000
13045
1002
}
1002
{
1070
     5
1000
21372
1002
}
1002
{
1070
     2
1000
-2005022
1002
}
  0
MTEXT
  5
40C
330
2
100
AcDbEntity
  8
A-____-____-IDEN
100
AcDbMText
 10
-6206.065021088686
 20
-3281.132667223011
 30
0.0
 40
12.5
 41
329.4935624999999
 46
0.0
 71
     1
 72
     1
  1
Viking Roofspec Pipe Seal 01 M12:
  7
Arial
 73
     2
 44
1.0
1001
REVIT
1002
{
1070
     1
1000
13045
1002
}
1002
{
1070
     5
1000
21372
1002
}
1002
{
1070
     2
1000
-2005022
1002
}
  0
MTEXT
  5
40E
330
2
100
AcDbEntity
  8
A-____-____-IDEN
100
AcDbMText
 10
-6206.065021088686
 20
-3300.976417223012
 30
0.0
 40
12.5
 41
322.6792187499999
 46
0.0
 71
     1
 72
     1
  1
Pipe Seal - Grey - 19mm - 205mm
  7
Arial
 73
     2
 44
1.0
1001
REVIT
1002
{
1070
     1
1000
13045
1002
}
1002
{
1070
     5
1000
21372
1002
}
1002
{
1070
     2
1000
-2005022
1002
}
  0
MTEXT
  5
40F
330
2
100
AcDbEntity
  8
A-____-____-IDEN
100
AcDbMText
 10
-6206.065021088686
 20
-3320.820167223011
 30
0.0
 40
12.5
 41
97.00418749999998
 46
0.0
 71
     1
 72
     1
  1
(pipe size)
  7
Arial
 73
     2
 44
1.0
1001
REVIT
1002
{
1070
     1
1000
13045
1002
}
1002
{
1070
     5
1000
21372
1002
}
1002
{
1070
     2
1000
-2005022
1002
}
  0
MTEXT
  5
410
330
2
100
AcDbEntity
  8
A-____-____-IDEN
100
AcDbMText
 10
-6206.065021088689
 20
-3340.663917223011
 30
0.0
 40
12.5
 41
301.4344999999999
 46
0.0
 71
     1
 72
     1
  1
Viking Roofspec Enviroclad pipe
  7
Arial
 73
     2
 44
1.0
1001
REVIT
1002
{
1070
     1
1000
13045
1002
}
1002
{
1070
     5
1000
21372
1002
}
1002
{
1070
     2
1000
-2005022
1002
}
  0
MTEXT
  5
411
330
2
100
AcDbEntity
  8
A-____-____-IDEN
100
AcDbMText
 10
-6206.065021088686
 20
-3360.507667223009
 30
0.0
 40
12.5
 41
320.6749999999999
 46
0.0
 71
     1
 72
     1
  1
seal boot STP430, installed as per
  7
Arial
 73
     2
 44
1.0
1001
REVIT
1002
{
1070
     1
1000
13045
1002
}
1002
{
1070
     5
1000
21372
1002
}
1002
{
1070
     2
1000
-2005022
1002
}
  0
MTEXT
  5
412
330
2
100
AcDbEntity
  8
A-____-____-IDEN
100
AcDbMText
 10
-6206.065021088686
 20
-3380.35141722301
 30
0.0
 40
12.5
 41
252.5315624999999
 46
0.0
 71
     1
 72
     1
  1
manufacturers instructions.
  7
Arial
 73
     2
 44
1.0
1001
REVIT
1002
{
1070
     1
1000
13045
1002
}
1002
{
1070
     5
1000
21372
1002
}
1002
{
1070
     2
1000
-2005022
1002
}
  0
ENDSEC
  0
SECTION
  2
OBJECTS
  0
DICTIONARY
  5
9
330
0
100
AcDbDictionary
281
     1
  3
ACAD_COLOR
350
3E
  3
ACAD_GROUP
350
35
  3
ACAD_LAYOUT
350
16
  3
ACAD_MATERIAL
350
B
  3
ACAD_MLEADERSTYLE
350
41
  3
ACAD_MLINESTYLE
350
36
  3
ACAD_PLOTSETTINGS
350
37
  3
ACAD_PLOTSTYLENAME
350
8
  3
ACAD_SCALELIST
350
3F
  3
ACAD_TABLESTYLE
350
40
  3
ACAD_VISUALSTYLE
350
2B
  3
ACDB_RECOMPOSE_DATA
350
416
  3
AcDbVariableDictionary
350
42
  0
DICTIONARY
  5
1E
330
1D
100
AcDbDictionary
280
     1
281
     1
  3
ACAD_LAYERSTATES
360
1F
  0
DICTIONARY
  5
6
330
5
100
AcDbDictionary
280
     1
281
     1
  0
DICTIONARY
  5
3
330
2
100
AcDbDictionary
280
     1
281
     1
  3
ACAD_SORTENTS
360
413
  0
DICTIONARY
  5
3E
102
{ACAD_REACTORS
330
9
102
}
330
9
100
AcDbDictionary
281
     1
  0
DICTIONARY
  5
35
102
{ACAD_REACTORS
330
9
102
}
330
9
100
AcDbDictionary
281
     1
  0
DICTIONARY
  5
16
102
{ACAD_REACTORS
330
9
102
}
330
9
100
AcDbDictionary
281
     1
  3
Layout1
350
1C
  3
Model
350
15
  0
DICTIONARY
  5
B
102
{ACAD_REACTORS
330
9
102
}
330
9
100
AcDbDictionary
281
     1
  3
ByBlock
350
3B
  3
ByLayer
350
38
  3
Global
350
A
  0
DICTIONARY
  5
41
102
{ACAD_REACTORS
330
9
102
}
330
9
100
AcDbDictionary
281
     1
  0
DICTIONARY
  5
36
102
{ACAD_REACTORS
330
9
102
}
330
9
100
AcDbDictionary
281
     1
  3
Standard
350
4D
  0
DICTIONARY
  5
37
102
{ACAD_REACTORS
330
9
102
}
330
9
100
AcDbDictionary
281
     1
  0
ACDBDICTIONARYWDFLT
  5
8
102
{ACAD_REACTORS
330
9
102
}
330
9
100
AcDbDictionary
281
     1
  3
Normal
350
7
100
AcDbDictionaryWithDefault
340
7
  0
DICTIONARY
  5
3F
102
{ACAD_REACTORS
330
9
102
}
330
9
100
AcDbDictionary
281
     1
  3
*A1
350
52
  3
*A10
350
53
  3
*A11
350
54
  3
*A12
350
55
  3
*A13
350
56
  3
*A14
350
57
  3
*A15
350
58
  3
*A16
350
59
  3
*A2
350
5A
  3
*A3
350
5B
  3
*A4
350
5C
  3
*A5
350
5D
  3
*A6
350
5E
  3
*A7
350
5F
  3
*A8
350
60
  3
*A9
350
61
  3
A0
350
62
  3
A1
350
63
  3
A2
350
64
  3
A3
350
65
  3
A4
350
66
  3
A5
350
67
  3
A6
350
68
  3
A7
350
69
  3
A8
350
6A
  3
A9
350
6B
  3
B0
350
6C
  3
B1
350
6D
  3
B2
350
6E
  3
B3
350
6F
  3
B4
350
70
  3
B5
350
71
  3
B6
350
72
  0
DICTIONARY
  5
40
102
{ACAD_REACTORS
330
9
102
}
330
9
100
AcDbDictionary
281
     1
  3
Standard
350
4E
  0
DICTIONARY
  5
2B
102
{ACAD_REACTORS
330
9
102
}
330
9
100
AcDbDictionary
281
     1
  3
2dWireframe
350
2A
  3
Realistic
350
50
  3
Wireframe
350
51
  0
XRECORD
  5
416
102
{ACAD_REACTORS
330
9
102
}
330
9
100
AcDbXrecord
280
     1
 90
        1
330
4E
  0
DICTIONARY
  5
42
102
{ACAD_REACTORS
330
9
102
}
330
9
100
AcDbDictionary
281
     1
  3
CANNOSCALE
350
43
  3
CMLEADERSTYLE
350
44
  3
CTABLESTYLE
350
45
  3
CVIEWDETAILSTYLE
350
46
  3
CVIEWSECTIONSTYLE
350
47
  3
DIMASSOC
350
48
  3
FIELDEVAL
350
49
  3
HIDETEXT
350
4A
  3
LAYEREVAL
350
4B
  3
LAYERNOTIFY
350
4C
  0
DICTIONARY
  5
1F
102
{ACAD_REACTORS
330
1E
102
}
330
1E
100
AcDbDictionary
281
     1
  0
SORTENTSTABLE
  5
413
102
{ACAD_REACTORS
330
3
102
}
330
3
100
AcDbSortentsTable
330
2
  0
LAYOUT
  5
1C
102
{ACAD_REACTORS
330
16
102
}
330
16
100
AcDbPlotSettings
  1
dwf_port
  2
DWF6 ePlot.pc3
  4
ISO_full_bleed_A4_(210.00_x_297.00_MM)
  6

 40
0.7937499880790711
 41
0.7937499880790711
 42
0.7937469482421875
 43
0.79376220703125
 44
210.0
 45
297.0
 46
0.0
 47
0.0
 48
0.0
 49
0.0
140
0.0
141
0.0
142
1.0
143
1.0
 70
   688
 72
     1
 73
     0
 74
     5
  7
branz.ctb
 75
    16
147
1.0
 76
     0
 77
     2
 78
   300
148
0.0
149
0.0
100
AcDbLayout
  1
Layout1
 70
     1
 71
     1
 10
-0.7937499880790711
 20
-0.7937499880790711
 11
209.2062500119209
 21
296.2062500119209
 12
0.0
 22
0.0
 32
0.0
 14
0.0010420625153245
 24
0.0014770624390508
 34
0.0
 15
208.4114610011634
 25
295.4110107424506
 35
0.0
146
0.0
 13
0.0
 23
0.0
 33
0.0
 16
1.0
 26
0.0
 36
0.0
 17
0.0
 27
1.0
 37
0.0
 76
     0
330
19
1001
ACAD_PSEXT
1000
DWF6 ePlot.pc3
1000
DWF6 ePlot
1000
File
1000

1070
     0
  0
LAYOUT
  5
15
102
{ACAD_XDICTIONARY
360
17
102
}
102
{ACAD_REACTORS
330
16
102
}
330
16
100
AcDbPlotSettings
  1

  2
none_device
  4
ISO_A4_(210.00_x_297.00_MM)
  6

 40
7.5
 41
20.0
 42
7.5
 43
20.0
 44
210.0
 45
297.0
 46
11.54999923706054
 47
-13.65000009536743
 48
0.0
 49
0.0
140
0.0
141
0.0
142
1.0
143
8.704084754739808
 70
 11952
 72
     1
 73
     0
 74
     0
  7

 75
     0
147
0.1148885871608098
 76
     0
 77
     2
 78
   300
148
0.0
149
0.0
100
AcDbLayout
  1
Model
 70
     1
 71
     0
 10
0.0
 20
0.0
 11
12.0
 21
9.0
 12
0.0
 22
0.0
 32
0.0
 14
0.0
 24
0.0
 34
0.0
 15
0.0
 25
0.0
 35
0.0
146
0.0
 13
0.0
 23
0.0
 33
0.0
 16
1.0
 26
0.0
 36
0.0
 17
0.0
 27
1.0
 37
0.0
 76
     0
330
2
331
29
1001
ACAD_PSEXT
1000
None
1000
None
1000
Not applicable
1000
The layout will not be plotted unless a new plotter configuration name is selected.
1070
     0
  0
MATERIAL
  5
3B
102
{ACAD_XDICTIONARY
360
3C
102
}
102
{ACAD_REACTORS
330
B
102
}
330
B
100
AcDbMaterial
  1
ByBlock
 94
       63
  0
MATERIAL
  5
38
102
{ACAD_XDICTIONARY
360
39
102
}
102
{ACAD_REACTORS
330
B
102
}
330
B
100
AcDbMaterial
  1
ByLayer
 94
       63
  0
MATERIAL
  5
A
102
{ACAD_XDICTIONARY
360
C
102
}
102
{ACAD_REACTORS
330
B
102
}
330
B
100
AcDbMaterial
  1
Global
 43
0.0007999999797903
 43
0.0
 43
0.0
 43
0.0
 43
0.0
 43
0.0007999999797903
 43
0.0
 43
0.0
 43
0.0
 43
0.0
 43
1.0
 43
0.0
 43
0.0
 43
0.0
 43
0.0
 43
1.0
 49
0.0007999999797903
 49
0.0
 49
0.0
 49
0.0
 49
0.0
 49
0.0007999999797903
 49
0.0
 49
0.0
 49
0.0
 49
0.0
 49
1.0
 49
0.0
 49
0.0
 49
0.0
 49
0.0
 49
1.0
142
0.0007999999797903
142
0.0
142
0.0
142
0.0
142
0.0
142
0.0007999999797903
142
0.0
142
0.0
142
0.0
142
0.0
142
1.0
142
0.0
142
0.0
142
0.0
142
0.0
142
1.0
144
0.0007999999797903
144
0.0
144
0.0
144
0.0
144
0.0
144
0.0007999999797903
144
0.0
144
0.0
144
0.0
144
0.0
144
1.0
144
0.0
144
0.0
144
0.0
144
0.0
144
1.0
 94
       63
1001
ACAD
1070
    -1
1070
     3
1070
     0
1000

1071
        0
1070
     0
  0
MLINESTYLE
  5
4D
102
{ACAD_REACTORS
330
36
102
}
330
36
100
AcDbMlineStyle
  2
STANDARD
 70
     0
  3

 62
   256
 51
90.0
 52
90.0
 71
     2
 49
0.5
 62
   256
  6
BYLAYER
 49
-0.5
 62
   256
  6
BYLAYER
  0
ACDBPLACEHOLDER
  5
7
102
{ACAD_REACTORS
330
8
102
}
330
8
  0
SCALE
  5
52
102
{ACAD_REACTORS
330
3F
102
}
330
3F
100
AcDbScale
 70
     0
300
1/128" = 1'-0"_XREF
140
0.0078125
141
12.0
290
     0
  0
SCALE
  5
53
102
{ACAD_REACTORS
330
3F
102
}
330
3F
100
AcDbScale
 70
     0
300
1/2" = 1'-0"_XREF
140
0.5
141
12.0
290
     0
  0
SCALE
  5
54
102
{ACAD_REACTORS
330
3F
102
}
330
3F
100
AcDbScale
 70
     0
300
3/4" = 1'-0"_XREF
140
0.75
141
12.0
290
     0
  0
SCALE
  5
55
102
{ACAD_REACTORS
330
3F
102
}
330
3F
100
AcDbScale
 70
     0
300
1" = 1'-0"_XREF
140
1.0
141
12.0
290
     0
  0
SCALE
  5
56
102
{ACAD_REACTORS
330
3F
102
}
330
3F
100
AcDbScale
 70
     0
300
1-1/2" = 1'-0"_XREF
140
1.5
141
12.0
290
     0
  0
SCALE
  5
57
102
{ACAD_REACTORS
330
3F
102
}
330
3F
100
AcDbScale
 70
     0
300
3" = 1'-0"_XREF
140
3.0
141
12.0
290
     0
  0
SCALE
  5
58
102
{ACAD_REACTORS
330
3F
102
}
330
3F
100
AcDbScale
 70
     0
300
6" = 1'-0"_XREF
140
6.0
141
12.0
290
     0
  0
SCALE
  5
59
102
{ACAD_REACTORS
330
3F
102
}
330
3F
100
AcDbScale
 70
     0
300
1'-0" = 1'-0"_XREF
140
12.0
141
12.0
290
     0
  0
SCALE
  5
5A
102
{ACAD_REACTORS
330
3F
102
}
330
3F
100
AcDbScale
 70
     0
300
1/64" = 1'-0"_XREF
140
0.015625
141
12.0
290
     0
  0
SCALE
  5
5B
102
{ACAD_REACTORS
330
3F
102
}
330
3F
100
AcDbScale
 70
     0
300
1/32" = 1'-0"_XREF
140
0.03125
141
12.0
290
     0
  0
SCALE
  5
5C
102
{ACAD_REACTORS
330
3F
102
}
330
3F
100
AcDbScale
 70
     0
300
1/16" = 1'-0"_XREF
140
0.0625
141
12.0
290
     0
  0
SCALE
  5
5D
102
{ACAD_REACTORS
330
3F
102
}
330
3F
100
AcDbScale
 70
     0
300
3/32" = 1'-0"_XREF
140
0.09375
141
12.0
290
     0
  0
SCALE
  5
5E
102
{ACAD_REACTORS
330
3F
102
}
330
3F
100
AcDbScale
 70
     0
300
1/8" = 1'-0"_XREF
140
0.125
141
12.0
290
     0
  0
SCALE
  5
5F
102
{ACAD_REACTORS
330
3F
102
}
330
3F
100
AcDbScale
 70
     0
300
3/16" = 1'-0"_XREF
140
0.1875
141
12.0
290
     0
  0
SCALE
  5
60
102
{ACAD_REACTORS
330
3F
102
}
330
3F
100
AcDbScale
 70
     0
300
1/4" = 1'-0"_XREF
140
0.25
141
12.0
290
     0
  0
SCALE
  5
61
102
{ACAD_REACTORS
330
3F
102
}
330
3F
100
AcDbScale
 70
     0
300
3/8" = 1'-0"_XREF
140
0.375
141
12.0
290
     0
  0
SCALE
  5
62
102
{ACAD_REACTORS
330
3F
102
}
330
3F
100
AcDbScale
 70
     0
300
1:1
140
1.0
141
1.0
290
     1
  0
SCALE
  5
63
102
{ACAD_REACTORS
330
3F
102
}
330
3F
100
AcDbScale
 70
     0
300
1:2
140
1.0
141
2.0
290
     0
  0
SCALE
  5
64
102
{ACAD_REACTORS
330
3F
102
}
330
3F
100
AcDbScale
 70
     0
300
1:4
140
1.0
141
4.0
290
     0
  0
SCALE
  5
65
102
{ACAD_REACTORS
330
3F
102
}
330
3F
100
AcDbScale
 70
     0
300
1:5
140
1.0
141
5.0
290
     0
  0
SCALE
  5
66
102
{ACAD_REACTORS
330
3F
102
}
330
3F
100
AcDbScale
 70
     0
300
1:8
140
1.0
141
8.0
290
     0
  0
SCALE
  5
67
102
{ACAD_REACTORS
330
3F
102
}
330
3F
100
AcDbScale
 70
     0
300
1:10
140
1.0
141
10.0
290
     0
  0
SCALE
  5
68
102
{ACAD_REACTORS
330
3F
102
}
330
3F
100
AcDbScale
 70
     0
300
1:16
140
1.0
141
16.0
290
     0
  0
SCALE
  5
69
102
{ACAD_REACTORS
330
3F
102
}
330
3F
100
AcDbScale
 70
     0
300
1:20
140
1.0
141
20.0
290
     0
  0
SCALE
  5
6A
102
{ACAD_REACTORS
330
3F
102
}
330
3F
100
AcDbScale
 70
     0
300
1:30
140
1.0
141
30.0
290
     0
  0
SCALE
  5
6B
102
{ACAD_REACTORS
330
3F
102
}
330
3F
100
AcDbScale
 70
     0
300
1:40
140
1.0
141
40.0
290
     0
  0
SCALE
  5
6C
102
{ACAD_REACTORS
330
3F
102
}
330
3F
100
AcDbScale
 70
     0
300
1:50
140
1.0
141
50.0
290
     0
  0
SCALE
  5
6D
102
{ACAD_REACTORS
330
3F
102
}
330
3F
100
AcDbScale
 70
     0
300
1:100
140
1.0
141
100.0
290
     0
  0
SCALE
  5
6E
102
{ACAD_REACTORS
330
3F
102
}
330
3F
100
AcDbScale
 70
     0
300
2:1
140
2.0
141
1.0
290
     0
  0
SCALE
  5
6F
102
{ACAD_REACTORS
330
3F
102
}
330
3F
100
AcDbScale
 70
     0
300
4:1
140
4.0
141
1.0
290
     0
  0
SCALE
  5
70
102
{ACAD_REACTORS
330
3F
102
}
330
3F
100
AcDbScale
 70
     0
300
8:1
140
8.0
141
1.0
290
     0
  0
SCALE
  5
71
102
{ACAD_REACTORS
330
3F
102
}
330
3F
100
AcDbScale
 70
     0
300
10:1
140
10.0
141
1.0
290
     0
  0
SCALE
  5
72
102
{ACAD_REACTORS
330
3F
102
}
330
3F
100
AcDbScale
 70
     0
300
100:1
140
100.0
141
1.0
290
     0
  0
TABLESTYLE
  5
4E
102
{ACAD_XDICTIONARY
360
4F
102
}
102
{ACAD_REACTORS
330
40
102
}
330
40
100
AcDbTableStyle
280
     0
  3
Standard
 70
     0
 71
     0
 40
1.5
 41
1.5
280
     0
281
     0
  7
Standard
140
4.5
170
     2
 62
     0
 63
     7
283
     0
 90
      512
 91
        0
  1

274
    -2
284
     1
 64
     0
275
    -2
285
     1
 65
     0
276
    -2
286
     1
 66
     0
277
    -2
287
     1
 67
     0
278
    -2
288
     1
 68
     0
279
    -2
289
     1
 69
     0
  7
Standard
140
6.0
170
     5
 62
     0
 63
     7
283
     0
 90
      512
 91
        0
  1

274
    -2
284
     1
 64
     0
275
    -2
285
     1
 65
     0
276
    -2
286
     1
 66
     0
277
    -2
287
     1
 67
     0
278
    -2
288
     1
 68
     0
279
    -2
289
     1
 69
     0
  7
Standard
140
4.5
170
     5
 62
     0
 63
     7
283
     0
 90
      512
 91
        0
  1

274
    -2
284
     1
 64
     0
275
    -2
285
     1
 65
     0
276
    -2
286
     1
 66
     0
277
    -2
287
     1
 67
     0
278
    -2
288
     1
 68
     0
279
    -2
289
     1
 69
     0
  0
VISUALSTYLE
  5
2A
102
{ACAD_REACTORS
330
2B
102
}
330
2B
100
AcDbVisualStyle
  2
2dWireframe
 70
     4
177
     3
291
     0
 70
    58
 90
        0
176
     1
 90
        2
176
     1
 90
        1
176
     1
 90
        0
176
     1
 40
0.6
176
     1
 40
30.0
176
     1
 62
     7
420
 16777215
176
     1
 90
        1
176
     1
 90
        4
176
     1
 62
     7
176
     1
 62
   257
176
     1
 90
        1
176
     1
 90
        1
176
     1
 40
1.0
176
     1
 90
        0
176
     1
 62
   257
176
     1
 40
1.0
176
     1
 90
        1
176
     1
 90
        6
176
     1
 90
        2
176
     1
 62
     7
176
     1
 90
        5
176
     1
 90
        0
176
     1
 90
        0
176
     1
290
     0
176
     1
 90
        1
176
     1
 40
0.0
176
     1
 90
        0
176
     1
290
     1
176
     1
290
     1
176
     1
290
     0
176
     1
290
     0
176
     1
290
     0
176
     1
290
     0
176
     1
290
     0
176
     1
290
     0
176
     1
290
     0
176
     1
 90
       50
176
     1
 40
0.0
176
     1
 40
1.0
176
     1
 90
        0
176
     1
 62
    18
420
        0
176
     1
 90
       50
176
     1
 90
        3
176
     1
 62
     5
420
      255
176
     1
290
     0
176
     1
 90
       50
176
     1
 90
       50
176
     1
 90
       50
176
     1
290
     0
176
     1
 90
       50
176
     1
 62
   256
176
     0
 40
1.0
176
     0
 90
        2
176
     1
  1
strokes_ogs.tif
176
     1
290
     0
176
     1
 40
1.0
176
     1
 40
1.0
176
     1
  0
VISUALSTYLE
  5
50
102
{ACAD_REACTORS
330
2B
102
}
330
2B
100
AcDbVisualStyle
  2
Realistic
 70
     8
177
     3
291
     0
 70
    58
 90
        2
176
     1
 90
        3
176
     1
 90
        0
176
     1
 90
        2
176
     1
 40
0.6
176
     1
 40
30.0
176
     1
 62
     7
420
 16777215
176
     1
 90
        0
176
     1
 90
        0
176
     1
 62
     7
176
     1
 62
   257
176
     1
 90
        1
176
     1
 90
        1
176
     1
 40
1.0
176
     1
 90
        8
176
     1
 62
   257
176
     1
 40
1.0
176
     1
 90
        1
176
     1
 90
        6
176
     1
 90
        2
176
     1
 62
     7
176
     1
 90
        3
176
     1
 90
        0
176
     1
 90
        0
176
     1
290
     0
176
     1
 90
       13
176
     1
 40
0.0
176
     1
 90
        0
176
     1
290
     0
176
     1
290
     1
176
     1
290
     1
176
     1
290
     0
176
     1
290
     0
176
     1
290
     0
176
     1
290
     0
176
     1
290
     0
176
     1
290
     0
176
     1
 90
       50
176
     1
 40
0.0
176
     1
 40
1.0
176
     1
 90
        0
176
     1
 62
    18
420
        0
176
     1
 90
       50
176
     1
 90
        3
176
     1
 62
     5
420
      255
176
     1
290
     0
176
     1
 90
       50
176
     1
 90
       50
176
     1
 90
       50
176
     1
290
     0
176
     1
 90
       50
176
     1
 62
   256
176
     0
 40
1.0
176
     0
 90
        2
176
     1
  1
strokes_ogs.tif
176
     1
290
     0
176
     1
 40
1.0
176
     1
 40
1.0
176
     1
  0
VISUALSTYLE
  5
51
102
{ACAD_REACTORS
330
2B
102
}
330
2B
100
AcDbVisualStyle
  2
Wireframe
 70
     5
177
     3
291
     0
 70
    58
 90
        0
176
     1
 90
        2
176
     1
 90
        0
176
     1
 90
        0
176
     1
 40
0.6
176
     1
 40
30.0
176
     1
 62
     7
420
 16777215
176
     1
 90
        1
176
     1
 90
        4
176
     1
 62
     7
176
     1
 62
   257
176
     1
 90
        1
176
     1
 90
        1
176
     1
 40
1.0
176
     1
 90
        0
176
     1
 62
   257
176
     1
 40
1.0
176
     1
 90
        1
176
     1
 90
        6
176
     1
 90
        2
176
     1
 62
     7
176
     1
 90
        3
176
     1
 90
        0
176
     1
 90
        0
176
     1
290
     0
176
     1
 90
        1
176
     1
 40
0.0
176
     1
 90
        0
176
     1
290
     0
176
     1
290
     1
176
     1
290
     1
176
     1
290
     0
176
     1
290
     0
176
     1
290
     0
176
     1
290
     0
176
     1
290
     0
176
     1
290
     0
176
     1
 90
       50
176
     1
 40
0.0
176
     1
 40
1.0
176
     1
 90
        0
176
     1
 62
    18
420
        0
176
     1
 90
       50
176
     1
 90
        3
176
     1
 62
     5
420
      255
176
     1
290
     0
176
     1
 90
       50
176
     1
 90
       50
176
     1
 90
       50
176
     1
290
     0
176
     1
 90
       50
176
     1
 62
   256
176
     0
 40
1.0
176
     0
 90
        2
176
     1
  1
strokes_ogs.tif
176
     1
290
     0
176
     1
 40
1.0
176
     1
 40
1.0
176
     1
  0
DICTIONARYVAR
  5
43
102
{ACAD_REACTORS
330
42
102
}
330
42
100
DictionaryVariables
280
     0
  1
1:1
  0
DICTIONARYVAR
  5
44
102
{ACAD_REACTORS
330
42
102
}
330
42
100
DictionaryVariables
280
     0
  1
STANDARD
  0
DICTIONARYVAR
  5
45
102
{ACAD_REACTORS
330
42
102
}
330
42
100
DictionaryVariables
280
     0
  1
STANDARD
  0
DICTIONARYVAR
  5
46
102
{ACAD_REACTORS
330
42
102
}
330
42
100
DictionaryVariables
280
     0
  1

  0
DICTIONARYVAR
  5
47
102
{ACAD_REACTORS
330
42
102
}
330
42
100
DictionaryVariables
280
     0
  1

  0
DICTIONARYVAR
  5
48
102
{ACAD_REACTORS
330
42
102
}
330
42
100
DictionaryVariables
280
     0
  1
2
  0
DICTIONARYVAR
  5
49
102
{ACAD_REACTORS
330
42
102
}
330
42
100
DictionaryVariables
280
     0
  1
7
  0
DICTIONARYVAR
  5
4A
102
{ACAD_REACTORS
330
42
102
}
330
42
100
DictionaryVariables
280
     0
  1
1
  0
DICTIONARYVAR
  5
4B
102
{ACAD_REACTORS
330
42
102
}
330
42
100
DictionaryVariables
280
     0
  1
0
  0
DICTIONARYVAR
  5
4C
102
{ACAD_REACTORS
330
42
102
}
330
42
100
DictionaryVariables
280
     0
  1
0
  0
DICTIONARY
  5
17
330
15
100
AcDbDictionary
280
     1
281
     1
  0
DICTIONARY
  5
3C
330
3B
100
AcDbDictionary
280
     1
281
     1
  3
FBXASSET
360
3D
  0
DICTIONARY
  5
39
330
38
100
AcDbDictionary
280
     1
281
     1
  3
FBXASSET
360
3A
  0
DICTIONARY
  5
C
330
A
100
AcDbDictionary
280
     1
281
     1
  3
BUMPTILE
360
D
  3
DIFFUSETILE
360
E
  3
FBXASSET
360
F
  3
OPACITYTILE
360
10
  3
REFLECTIONTILE
360
11
  0
DICTIONARY
  5
4F
330
4E
100
AcDbDictionary
280
     1
281
     1
  3
ACAD_ROUNDTRIP_2008_TABLESTYLE_CELLSTYLEMAP
360
415
  0
XRECORD
  5
3D
102
{ACAD_REACTORS
330
3C
102
}
330
3C
100
AcDbXrecord
280
     1
 70
     1
 90
429727718
  1
D62C5603-E3A1-4AEA-B7FB-FE5D8D0755AF
310
504B03040A0000080000CC70623B3DEE336E79000000790000001B0000006175746F6465736B2D64657369676E2D7061636B6167652E786D6C3C3F786D6C2076657273696F6E3D22312E302220656E636F64696E673D227574662D3822203F3E3C666F726D6174733E3C666F726D61743E687474703A2F2F736368656D612E
310
6175746F6465736B2E636F6D2F64657369676E2D7061636B6167652F323030393C2F666F726D61743E3C2F666F726D6174733E504B0304140006080800CC70623BD486FD9CA0000000F4000000130000005B436F6E74656E745F54797065735D2E786D6C7D8EC10E82300C865F65E91D8A1E8C310C0EEA1BF002731658846E
310
D98AC1B77784ABF1D8FE5FBFBF75BBCE937A534CCEB38643598122B6FEE978D0B0485F9C41B54DDD7D022595594E1A469170414C76A4D9A4D207E29CF43ECE46F218070CC6BECC4078ACAA135ACF422C856C0E68EA1BF5669944DDD7BCDE7B1F8E415D77AECB980613C2E4AC91FC167A2B244592486606FC29C8FD7F045B9A
310
EF7053A7E60B504B0304140006080800CC70623B853B8169EB0000007C01000008000000636F72652E786D6C8D90416EC3201045AF62CDB6C206821CC7C244919D9CA01740401C94182C03558F5F9C3852BBEB6A467FFE9B197D7EFC9E1EC5975982F5AE035262288C535E5B377690E21535501C055FBC8FBF6C503839990E
310
5619041F179FE64D52DE45E362569DD7661365082642A11EB9E920A89B99642953CC8E702F67A9EE7234257977194EC9EAE275C4EABCCF5EAD5940D4AC6F0E35A568B8F43562CD7046CD199FD07E60174276A7BE677B5EADB0E0D14EEFFB6A31321A0D82627C4084204C3F096B71DD52F6819B16635EADF63F509AF53FA164
310
5DDCD1EDDD17164090FCC8732078B56691CB33A85CD7DCC40F504B0304140006080800CC70623B55019EA25F0000007C00000007000000636E782E786D6C4DCB3B0E80201045D1AD90E915ED2CF8AC45050C11660C8261F98AB1B07AC9C97D42D718D865D3E909258CFD00CCE24AC6E326A164D74DC0B4128928FF32603847
310
2BA13128B1252AC747C6BAB984FC68F0B87FE8960A5C09FE86CFB69FBA01504B0304140006080800CC70623BDBABAAF470010000D40300000C0000006662782F636F72652E786D6CC553D16E823014FD95A6AF4B694182CC941A83FA05FB810A9511A125A5257EFE2E82712ECEB8A7F100CD39F7F69E734AF9FADC366850B6
310
AF8DCE7018308C942E4C59EB2AC3DE1D498AD15A706B8CFB56869196ADCAF00863C12B6B7C374385D14E6907A836A59A41D9F7CA615434B0C8705F7CAA5606D23BA8E84F41278B93AC54100640439DE0BDB320004D43C63716C7C399D30917DCFBBA9CD9BA8469F5B156168B24CED3F7248AC8769F27244EB73B92EED8862C
310
B7F13E0C179B3C8F979C8ECD82BBBABDAA2BAC924E9558448CBD9330242CFA08E3154B5651FCC6D215639C8EE5774DBE2B5F6CF2B5768B68963BB5F5588420E442FC700B1139D4CB01F450C1E918227C2E09DF070D8140C84E1E9AAB8F1340832A9CB13130A5F1376A908D57309505ECF2A0DF179C4E9D30F5B239B87E3823
310
7A79C6F31DE1A8A5AEC08474B03C7837EAE4938639B44E5932B833D2C6B6B279CDC613877FA26EE21F4A2A4C63EC7F29A2F301D1F9F7A0E37D145F504B0304140006080800CC70623B9C113CC27E0000009D0000000B0000006662782F636E782E786D6C4DCCDF0A83201C86E15B91DFB94BFB330DD428C8FB886521330DA7
310
6397BF1A1DECE883878F57749FCDA1B7892F1BBC047A23808C7F84D9FA55424E0BE6803A256208E9EF06C84F9B91703228B1C690F78B66B34CD9A5439DF5CF0BFBF65E35BCA1B8D6A5C6F540381E886698B5741C695F9503EBA150A2F8958E3DC3EA0B504B0304140006080800CC70623B7DF2F77C2A010000120200003100
310
00006662782F41393633353835312D344632462D344230382D423046372D3739314545314133324237412F636F72652E786D6C8D51DB8EC22014FC15C2939B0D2DB4B45643319AE817EC0F6041255A68B86CFCFC856D4D76DF7CE190393373060EDB3DC707F856CE6B6B7A480A0C81328395DA5C7B18C3057510EC3873D686
310
3F34088C18550F330C39BB3A1BA7051AAC09CA84841A2BD5020AEF55806078A44B0FFD7053A328440C89E1EFC52486BBB8AA8214A99D789CF9E05200300FC927E4FB4D5B375D43103D5527440FB843077C5AA3F5861C8F645F5787F59E95B390B318B55CE45AA638FAA2957BD7248B390B7A7CC51F9C124149C82B8C378810
310
84AB2F42B7B8DD56F413775B8C5999E9FF4471926F8AA236A1AE96B8B3CC434E5839373893369E1FAF30EA395917409EB7F26AF8801C171837A4A6AC9C89E9F9C9B1A58BA30FD6A5EF5DDDCF894B9AD9B6A59C957943A9FCAE2FD5BC4DFE03504B0304140006080800CC70623BAD7543B64E01000033030000300000006662
310
782F41393633353835312D344632462D344230382D423046372D3739314545314133324237412F636E782E786D6CD593CD6EC32010845F0571AD6CE3D48AD20813A9873E410FBD12D82434182C7EAAE6EDBB2424CD25871E7B41D6EC30B3FA84F9E67BB2E40B4234DE8DB46F1925E094D7C6ED479AD3AE5951B2113C789FEE
310
6C943839C1488B4C05DF079FE72A69D8C96C13AAD6B8631503449F83828872B949AC57D26200B826A308D316B4064D6E46FCDA41C05550DC9E483A00797BFD207EFB092A45DE9514C1BBD22178396BD39D891265658C238DEA00936C654E5E433CB65A26D9F6EDB5EBC14EBF49A45CB856E66048291F6939A9A81BB5C89177
310
38143CA680F4AA299D66A042CEB3354A2684DC9D8D178FE0D9B8B41CAAD720F880EE7EF93C0C18769E099ECC04D5A102C8049A8A05632F4DDF376CF1DE0F6BB65C2F8627B65A33C6BB62177CEBBDAD973006829F89F22E814B54F4BC2BE347F8AA8F681390B50FA73F804400B5F542E796F19FF974E7F78DB802FE05E20750
310
4B0304140006080800CC70623BE75B7789680500003C100000340000006662782F41393633353835312D344632462D344230382D423046372D3739314545314133324237412F6F626A656374732E786D6CAD575B8F9B3818FD2B887D06C22499CB8AA1CA655245D5B455A356FB305264C061D8018C6C3393D95FBFC7600890
310
A4CD5EF210B0B1BFEBF98E3F7B1FF6596ABC522E1296DF9BAE3D320D9A872C4AF2F8DE2CE5CEBA358D0FBEC719939D65A691938CDE9B6ADAF4BD98B3B2D05311DD91329583D9D5FC0F438434A7A611A644887B5384CF34233629258BA878B12322891DEFF6B66BD70BFB62634E8AE781D082709A4B588AF91C528CDA28B73F
310
1C998EEF39EABBEFA97FBD6A7C7E9553F9D3D79FE442923C3C523610337627CB87ABE99D359D4CC6D6E4FACAB5E6ABF9D2726FC6A3C5F56271377BB88362213924694B38DD99FE47C48627A1E7D49F5A8BB5E1A74C0A599ED3B0F21F1E56366B89112D681E218F0915D0D6F17AD41FBA2A369DCF6335D62ABBD39779D5DDD1
310
11D4D8DE3CBB96B2E04FB8202E41051754A1AA8E8F76B4C6DFE810B580B1547F4B84911149794252234D024EF8BBE963A95AE27B3D310A9D5C215C7960FAEE415ED75694C6AFB17BCACA5D99A60A9AA65F217B0BFC53292ACB92BF283FAD0D3621576592CB5BED907C2FA8E9DF794E35E97BEA31BED21FEB401ABB94C44839
310
DCACBF0E1C5DA8DA5B2F4DFFD32AD86F543D9E565E7056502E157C00AD2671CD534549AB752FCA9CDA00677A313F04E51B22FF19E57B300579E3C97EB29F682D92935CEC18CF901B7B54FD8C51F362B56FC72FE0B3C1EAE335EDCCBF5AEC39ADB17DC238973F804BA5E6F6BFE7AF1FB32E523BE9F3BD571418E3631DCA4D48
310
5250CF639223210A9446CA30052EDF057BD35F8329C1ECD84552BF0DC8D18BE7BCE23BFE6BD960AB4A7DE79923A103BEBD80F911CBAA2C60DB19B01CF164A5583B772EE6D3FFA56666CBCDA74DC97724A48F9A58967497E489C4D979006FD7A05E227A1EBDD0F737C623387A9C844D3709995625106D157315F8B8392CD4E0
310
A0B9A720C4BE9829CEF37EA1E13111214D53925356365ADA634861B52519DD27A00AEB808EAF0628E6F435519D446F45CF2C9CF5214F0A15B2F6D06B79DA3EE3CBF7F56780D2F4E7EF73A0F5E5B02A38D07DC852C6B7C1FBB6664213E0C39E3EBA7FF4E1AD23EA2829407C85E586727488B751B2DB9502BC7B228A3FD68B6E
310
A65A22397E690AA8D158D7E404EC8CDA235CC3B7D1898680131CEC2CDF2638C65196279577750F15884AEE19F94199155B92B13297978469D4F8D358DF0AEF7631E28DC8F0D9F437D5D39A83B2231A1D52D543813A824EF8D44BCFF2FA6A31BD1E8DAD87F1CCB526B3879935BF59CDADD5C37479BB1CDD4CA7B3556B516589
310
EF352754B706114D9C885EC9131DE6EFEB43D99AFE2391C2F958179413D7CFEF6B1B6DB1E7600F00DE6E5C67454A339A4BA2E0FBA85ED26F045D454F463DBFCE484C2F90F2E5E3666003662ED8F755951A7D1BECD5B30B550B2785C8E7320B7292A4838DDA71BBC863ED7613CAF659337A3354231D4FF4A182A54904C2898C
310
98B28C4AD0CE056CCF332A80986E571EE9DBC305BB5FEB7E509220A58D25CF042D712A806AC0AD0C657FDEF80D2D9CEAA2EE4D1C76F60BFE74219A06527D6F82DF6412526107381E55E353090704D085B52408A8913C4ED159D79BDA71BB4BC506F4831350EB6F975CD22D69BF7AC49B91A2C0A9DDA3D5CA36AD20FC478E37
310
E61844E2352865EBCB61A275A65283CAAA9DD27703B4102F5AF51EF5F573B75CBB5AD38BC845F7A49F82A0966A49C2E3EA5EA0ECD326CD965F1DB402C6FA8B51A4658C5C5E2EC9E214602E55810345408596591009A82E7E7FFACA19EEA299B14A0081A705CB3296EBC14CDF658DCD336EA6D1136881AAEB87B81AB9EE53D5
310
F5EB8BC8362082DA24122F98680A4E7930C01A0079749CEA14382A0783E5EBA5A10F8C098456A03D6A4AEB6BB881E2513747552A5DB22C7EDAF83BD5528081A365F7FF06504B0304140006080000CC70623B000000000000000000000000350000006662782F41393633353835312D344632462D344230382D423046372D37
310
39314545314133324237412F76657274696365732E62696E504B0304140006080800CC70623BF270F1330600000004000000360000006662782F41393633353835312D344632462D344230382D423046372D3739314545314133324237412F747269616E676C65732E62696E636660600000504B0304140006080000CC7062
310
3B000000000000000000000000370000006662782F41393633353835312D344632462D344230382D423046372D3739314545314133324237412F617474726962757465732E62696E504B0304140006080800CC70623B08DA0BD19000000041010000360000006662782F41393633353835312D344632462D344230382D4230
310
46372D3739314545314133324237412F6469726563746F72792E786D6C858F410AC3201045AF22B36F53E9A60B35CBEEBAE80D244E44489C6234F4F835464A48035D0DF398FF9F8AF63D0E6CC63039F212F8F9020C7D47C6792B21C5FE7403D62A1188E2E60C98D7234A5830286103A55745067B9D86B8A3CF9C7F90C11DE6
310
07FB144396D7B6A82D282E9A152AD114D5EF2CB866EEE831B8EEA07A7BB5A8D7D61A2BAAEB7FD5F70921FF497D00504B0304140006080800CC70623BEDD1DC58FD000000A00100003B0000006662782F41393633353835312D344632462D344230382D423046372D3739314545314133324237412F7265736F75726365732F
310
636F72652E786D6C8D504B6E833010BD0A9A6D65B00922041947112427E8052C33A156828DFCA97AFC9A40A576D7CDCCE87D344F8F9FBFE667F689CE6B6B3A6039850C8DB2A336530731DC4903D95970676DF82583CCC8193B5861107C72362E3BA4AC096842428D1D7107A5F7182053CF7474E0D507CE32973124857FE48B
310
540F3961CEF244279DE03EB81420DB9EAC1384436FA353E879B1B182C7A8C75DA3C7F453DF353A1075D537A7BA6464B8F535A99AE14A9A2BBD90E350DD183B5CFABE3AF262350B1EF4FC9351399401471025A527C218A1E53BAB5A5AB765F5469B96525EACF23FA6B88CFF34456DC2A1DCE36E360F82A5202F42F062ED2BAD
310
579969AFDD8A6F504B010214000A0000080000CC70623B3DEE336E79000000790000001B00000000000000000000000000000000006175746F6465736B2D64657369676E2D7061636B6167652E786D6C504B01021400140006080800CC70623BD486FD9CA0000000F40000001300000000000000000000000000B20000005B
310
436F6E74656E745F54797065735D2E786D6C504B01021400140006080800CC70623B853B8169EB0000007C010000080000000000000000000000000083010000636F72652E786D6C504B01021400140006080800CC70623B55019EA25F0000007C000000070000000000000000000000000094020000636E782E786D6C504B
310
01021400140006080800CC70623BDBABAAF470010000D40300000C00000000000000000000000000180300006662782F636F72652E786D6C504B01021400140006080800CC70623B9C113CC27E0000009D0000000B00000000000000000000000000B20400006662782F636E782E786D6C504B01021400140006080800CC70
310
623B7DF2F77C2A010000120200003100000000000000000000000000590500006662782F41393633353835312D344632462D344230382D423046372D3739314545314133324237412F636F72652E786D6C504B01021400140006080800CC70623BAD7543B64E010000330300003000000000000000000000000000D2060000
310
6662782F41393633353835312D344632462D344230382D423046372D3739314545314133324237412F636E782E786D6C504B01021400140006080800CC70623BE75B7789680500003C10000034000000000000000000000000006E0800006662782F41393633353835312D344632462D344230382D423046372D3739314545
310
314133324237412F6F626A656374732E786D6C504B01021400140006080000CC70623B0000000000000000000000003500000000000000000000000000280E00006662782F41393633353835312D344632462D344230382D423046372D3739314545314133324237412F76657274696365732E62696E504B01021400140006
310
080800CC70623BF270F133060000000400000036000000000000000000000000007B0E00006662782F41393633353835312D344632462D344230382D423046372D3739314545314133324237412F747269616E676C65732E62696E504B01021400140006080000CC70623B0000000000000000000000003700000000000000
310
000000000000D50E00006662782F41393633353835312D344632462D344230382D423046372D3739314545314133324237412F617474726962757465732E62696E504B01021400140006080800CC70623B08DA0BD1900000004101000036000000000000000000000000002A0F00006662782F41393633353835312D344632
310
462D344230382D423046372D3739314545314133324237412F6469726563746F72792E786D6C504B01021400140006080800CC70623BEDD1DC58FD000000A00100003B000000000000000000000000000E1000006662782F41393633353835312D344632462D344230382D423046372D3739314545314133324237412F7265
310
736F75726365732F636F72652E786D6C504B0506000000000E000E0080040000641100000000
  0
XRECORD
  5
3A
102
{ACAD_REACTORS
330
39
102
}
330
39
100
AcDbXrecord
280
     1
 70
     1
 90
429727718
  1
30362254-06B7-45E0-A893-8CFA70E3D6BC
310
504B03040A0000080000CC70623B3DEE336E79000000790000001B0000006175746F6465736B2D64657369676E2D7061636B6167652E786D6C3C3F786D6C2076657273696F6E3D22312E302220656E636F64696E673D227574662D3822203F3E3C666F726D6174733E3C666F726D61743E687474703A2F2F736368656D612E
310
6175746F6465736B2E636F6D2F64657369676E2D7061636B6167652F323030393C2F666F726D61743E3C2F666F726D6174733E504B0304140006080800CC70623BD486FD9CA0000000F4000000130000005B436F6E74656E745F54797065735D2E786D6C7D8EC10E82300C865F65E91D8A1E8C310C0EEA1BF002731658846E
310
D98AC1B77784ABF1D8FE5FBFBF75BBCE937A534CCEB38643598122B6FEE978D0B0485F9C41B54DDD7D022595594E1A469170414C76A4D9A4D207E29CF43ECE46F218070CC6BECC4078ACAA135ACF422C856C0E68EA1BF5669944DDD7BCDE7B1F8E415D77AECB980613C2E4AC91FC167A2B244592486606FC29C8FD7F045B9A
310
EF7053A7E60B504B0304140006080800CC70623B1EC5D7A3EB0000007C01000008000000636F72652E786D6C8D90416EC3201045AF82665B6103C6756C6122AB4D4ED00B204C5C94182C03558F5F9C3852BBEB6A467FFE9B197D71FC9E6FE8CBACC17AD7032D0820E3B41FAD9B7A48F1820F808E52ACDEC75F36404ECDA687
310
4D0629A6D5A76597B477D1B89855E747B38B2A041301E95B6E7A08FAD3CCAA50296647B8168BD2573599823EBB0CA76447F43862C7BCCF5EAC59410E4DDD9C7973C2755553CCCFA4C603E3040F1565ED3B1FDE4E432BCA0D9622DAF9795FAF464533826484B498524CD807E51D79ED187F21878E10516EF63F505AC67F42C9
310
BA58B1FDDD071640D2FCC87D2045B96591CB3DA85CB7DCE40F504B0304140006080800CC70623B55019EA25F0000007C00000007000000636E782E786D6C4DCB3B0E80201045D1AD90E915ED2CF8AC45050C11660C8261F98AB1B07AC9C97D42D718D865D3E909258CFD00CCE24AC6E326A164D74DC0B4128928FF32603847
310
2BA13128B1252AC747C6BAB984FC68F0B87FE8960A5C09FE86CFB69FBA01504B0304140006080800CC70623B8C9102E971010000D40300000C0000006662782F636F72652E786D6CC5535B6E833010BC8AE5DF0A6C08340F1947A84D4ED00B38C6A128602363A31CBFCB234A53A551FA553EC09AD9F5CE8C31DB9E9B1AF5CA
310
7695D1198E428A91D2D214952E33ECDD315861B4E5CC1AE3BE9561A445A3323CC098B3D21ADFCE9034DA29ED00D5A6503328BA4E398C640D8B0C77F253352214DE4145770A5B214FA2546114020D759C75CE8200340D19DE981F0F6746269C33EFAB6266AB02A655C74A59CCF365BADC27CB5D902ED22848F6340DF238A141
310
BE88E2F57B92BFEDF23523433367AE6A2EEAA455C2A902F398D2751045018D3FA264435F3771F242571B4A1919CA6F9A7C5B3CD9E42BED16F12C776AEB308F40C848FC700B1139D4891EF410CEC810227CC6846F8386402064270EF5C5C709A05E49676C024C61FC95EA45ED154CA5211D1FF4FB8291A913A68E9B83EBBB33
310
E2A7673CDE118E5AE8124C0807CB8377834E366998436B950D7A7746DAD846D4CFD978E0F04FD455FC5D49D2D4C6FE9722321F10997F0F32DC47FE05504B0304140006080800CC70623BFFEA85907E0000009D0000000B0000006662782F636E782E786D6C4DCCD10A83201886E15B91FFDC95D95A811AB6F23E625948A6C3
310
E9D8E5AF46073BFAE0E1E365ED67B3E8ADC3CB78C7815C7240DA3DFC64DCC221C519D7805AC182F7F1EF06C88D9BE6703008B6049F9E274D7A1E938DBB5AE3D6131B2589BA0D3D965551E0B2EA732C9B9A624AAEB41E3A557677029960D9AFB4EF11165F504B0304140006080800CC70623B4FEEA4082C0100001202000031
310
0000006662782F39464131463745442D413632322D343644302D413938332D3331353338454246344243312F636F72652E786D6C8D515B6EC32010BC0AE2AB55850DD871ED0813254D72825EC00192A2C460F1A872FC42ED48ED5F7E00CDCECCCEB26C731F6FE05B39AFADE921293004CA082BB5B9F43086336A21D870E6AC
310
0D7F68109861543DCC30E4ECE26C9C164858139409093556AA051CBC570102714B8F1E7AF1A5C6A11862480C7F2DA6415C878B2A4891CA89C7990F2E050073937C42DE1DB7E4F87ED8A36D4329AA9B3D46DBAEAD504556557BD81DEBDD0761E52CE42C462D17B996298E3E6BE59E35C962CE821E1FF18553435012728A7187
310
0841987E927A8D9B35ADDF70BBC6989599FE4F1427F9A4286A132ABAC49D651EF234CD5CE04CDA78BA3DC2A8FB645D00B9DF8B57E215725C60BCA2A463E54C4CE327C7A65E1C7DB02E7DEFCBF594B864C5CA6CDBD49C957943E9FA5D5FBAF336F90F504B0304140006080800CC70623BAD7543B64E01000033030000300000
310
006662782F39464131463745442D413632322D343644302D413938332D3331353338454246344243312F636E782E786D6CD593CD6EC32010845F0571AD6CE3D48AD20813A9873E410FBD12D82434182C7EAAE6EDBB2424CD25871E7B41D6EC30B3FA84F9E67BB2E40B4234DE8DB46F1925E094D7C6ED479AD3AE5951B2113C
310
789FEE6C943839C1488B4C05DF079FE72A69D8C96C13AAD6B8631503449F83828872B949AC57D26200B826A308D316B4064D6E46FCDA41C05550DC9E483A00797BFD207EFB092A45DE9514C1BBD22178396BD39D891265658C238DEA00936C654E5E433CB65A26D9F6EDB5EBC14EBF49A45CB856E66048291F6939A9A81BB5
310
C8917738143CA680F4AA299D66A042CEB3354A2684DC9D8D178FE0D9B8B41CAAD720F880EE7EF93C0C18769E099ECC04D5A102C8049A8A05632F4DDF376CF1DE0F6BB65C2F8627B65A33C6BB62177CEBBDAD973006829F89F22E814B54F4BC2BE347F8AA8F681390B50FA73F804400B5F542E796F19FF974E7F78DB802FE05
310
E207504B0304140006080800CC70623B16AB87BA640500003C100000340000006662782F39464131463745442D413632322D343644302D413938332D3331353338454246344243312F6F626A656374732E786D6CAD575B6FA33818FD2B887DE6924B3BED8A326A92B68A663B534DD4D13E548A0C38942D60649B369D5FBFC7
310
600890A493BDE42160637FD7F31D7FF63E6FB3D478A55C242CBF3247B66B1A340F5994E4F19559CA8D75611A9F7D8F33263BCB4C232719BD32D5B4E97B316765A1A722BA21652A07B3B7B33F0D11D29C9A46981221AE4C113ED38CD8A4942CA2E2C58E882476BCD9DA23BB5ED8171B73523C0F841684D35CC252CCE79062D4
310
468DFA43D7747CCF51DF7D4FFDEB5593E3AB9CCA9FBEFE241792E4E19EB28198C968BAB8199F5D5A67D3E9C49A9E8F47D6EC76B6B0469F26EEFC7C3EBFBCBEB98462213924694B38DD98FE1D62C393D073EA4FADC5DAF04326852CCF6958F90F0F2B9BB5C48816348F90C7840A68EB78EDF68723159BCEE7891A6B95DDE9D3
310
BCEAEEE8086A6C6F9E5D4B59F0175C10A7A0820BAA5055C7473B5AE3CFDD452D602CD5DF12616444529E90D448938013FE6EFA58AA96F85E4F8C42275708571E98FE6827AF6B2B4AE3D7D83D64E5A64C53054DD3AF90BD06FEA9149565C94FCA0F6B834DC85599E4F2423B24DF0B6AFA979E534DFA9E7A4CC6FA631D486393
310
921829879BF5D781A373557BCB85E97FB90DB62B558F8795179C15944B051F40AB495CF35451D26A4727654E6D8033BD98EF82F21D91FF8AF2DD9982BCF1643BDD4EB516C9492E368C67C88DED563FC36D5EACF66DFF057C3658BDBFA69DF9578B3DA735B64F18C7F20770A9D45CFCF7FCF563D6456A277DBEF78A02637CA2
310
43B90A490AEAB94F72244481D24819A6C0E59B606BFA4B3025981DBB48EAB701D97BF19C577CC77F2D1B6C55A9EF3C732474C0B727303F625995056C3B02963D9EAC146BE78EC5FCEC7FA999EBC5EACBAAE41B12D27B4D2C0BBA49F244E2ECDC81B76B502F113D8F5EE8FB1BE3111CDD4FC2AA9B844CAB1288B68AB90A7CDC
310
1C166AB0D3DC5310625FCC14E779BFD0709F8890A629C9292B1B2DED31A4B0DA928CEE135085754027E3018A397D4D5427D15BD1330B677DC8934285AC3DF45A9EB68FF8F2B8FC0A509AFEECFD0FF2DE25CC6047F7214B195F07EFEB9A094D800F7BFAE8FED187B78EA8A3A400F115961BCAD1215E47C966530AF0EE8128FE
310
58CEBB996A8964FFA529A046635D9353B0336A8F700DDF46271A024E70B0B37C9DE01847591E54DED53D54202AB947E4076556AC49C6CA5C9E1226B7F1A7B1BE15DEED62C41B91E1B3E9AFAAA735036547343A925075041DF0A9979E893B391F8FCFA6967B3EFB644DCF6E5CEBFAE272625DCC6FAF3FB93793C5F90CE1EF57
310
407342756B10D1C489E8953CD1617E5CEECAD6F4EF8914CE5D5D504E5C3F1F9736DA62CFC11E00BCDDB8CC8A9466349744C1F75EBDA4DF09BA8A9E8C7A7E9991989E20E5DBDD6A6003664ED8F7A04A8DBE0DF6EAD9B9AA858342E47399053949D2C146EDB85DE4B176BB0965FBAC19BD19AA918E27FA50C1D22402E144464C
310
59462568E704B6E71915404CB72B8FF4EDE184DDAF753F284990D2C6926782963815403548A70C657FDEF80D2D9CEAA2AE4C1C76F60BFE74219A06527D6582DF6412526107381E55E353090704D085B52408D0933C4ED159D79BDA71BB4BC506F4831350EB6F979CD22D69BF7AC49B91A2C0A9DDA3D5CA36AD20FC478E37E6
310
1844E2352865EBCB6EA275A652E3836BE04EFB400BF1A2556F515F1FBB35B2AB35BD889C744FFA1004B5544B121E57F70215746DD2F5E2C1412B602CBF19455AC6C8E5E9922C4E01E65215385004546899059180EAFCF7A707CE7017CD8CDB0410789AB32C63B91E5CEBBBACB17AC6CD347A022D5075FD106377347AAABA7E
310
7D11590744509B44E205134DC1290F06580320F78E537D3D73540E06CB970B431F185308AD40BBD794D6D77003C5A36E8EAA54BA64597CD8F83BD552A080A365F7FF06504B0304140006080000CC70623B000000000000000000000000350000006662782F39464131463745442D413632322D343644302D413938332D3331
310
353338454246344243312F76657274696365732E62696E504B0304140006080800CC70623BF270F1330600000004000000360000006662782F39464131463745442D413632322D343644302D413938332D3331353338454246344243312F747269616E676C65732E62696E636660600000504B0304140006080000CC70623B
310
000000000000000000000000370000006662782F39464131463745442D413632322D343644302D413938332D3331353338454246344243312F617474726962757465732E62696E504B0304140006080800CC70623B08DA0BD19000000041010000360000006662782F39464131463745442D413632322D343644302D413938
310
332D3331353338454246344243312F6469726563746F72792E786D6C858F410AC3201045AF22B36F53E9A60B35CBEEBAE80D244E44489C6234F4F835464A48035D0DF398FF9F8AF63D0E6CC63039F212F8F9020C7D47C6792B21C5FE7403D62A1188E2E60C98D7234A5830286103A55745067B9D86B8A3CF9C7F90C11DE607
310
FB144396D7B6A82D282E9A152AD114D5EF2CB866EEE831B8EEA07A7BB5A8D7D61A2BAAEB7FD5F70921FF497D00504B0304140006080800CC70623B0D6EF93BFE000000A00100003B0000006662782F39464131463745442D413632322D343644302D413938332D3331353338454246344243312F7265736F75726365732F63
310
6F72652E786D6C8D50596E833010BD0A9ADFCA60B334011947A8694ED00B586642AC041B79A97AFC9A40A5F6AF3F33A3B7689E1E3F7DCD8FEC139DD7D6F4C0720A191A65476DA61E62B892236427C19DB5E1970C322367EC618541F0C9D9B8EC90B226A009093576C41D94DE63804C3DD2D18357379C652E63480A7FCF17A9
310
EE72C29CE5894E3AC17D702940B63D59270887DE46A7D0F36263058F518FBB468FE9A7BE6A7420864373B8D4873369AA8691FA421B3294352543C5CAF65C0F6FEF43CB8BD52C78D0F34F46E550061C419494B6843142CB0F5677F4B52BEB177AEC28E5C52AFF638ACBF84F53D42654E51E77B379102C05791282176B5F693D
310
CB4C7BED567C03504B010214000A0000080000CC70623B3DEE336E79000000790000001B00000000000000000000000000000000006175746F6465736B2D64657369676E2D7061636B6167652E786D6C504B01021400140006080800CC70623BD486FD9CA0000000F40000001300000000000000000000000000B20000005B
310
436F6E74656E745F54797065735D2E786D6C504B01021400140006080800CC70623B1EC5D7A3EB0000007C010000080000000000000000000000000083010000636F72652E786D6C504B01021400140006080800CC70623B55019EA25F0000007C000000070000000000000000000000000094020000636E782E786D6C504B
310
01021400140006080800CC70623B8C9102E971010000D40300000C00000000000000000000000000180300006662782F636F72652E786D6C504B01021400140006080800CC70623BFFEA85907E0000009D0000000B00000000000000000000000000B30400006662782F636E782E786D6C504B01021400140006080800CC70
310
623B4FEEA4082C0100001202000031000000000000000000000000005A0500006662782F39464131463745442D413632322D343644302D413938332D3331353338454246344243312F636F72652E786D6C504B01021400140006080800CC70623BAD7543B64E010000330300003000000000000000000000000000D5060000
310
6662782F39464131463745442D413632322D343644302D413938332D3331353338454246344243312F636E782E786D6C504B01021400140006080800CC70623B16AB87BA640500003C1000003400000000000000000000000000710800006662782F39464131463745442D413632322D343644302D413938332D3331353338
310
454246344243312F6F626A656374732E786D6C504B01021400140006080000CC70623B0000000000000000000000003500000000000000000000000000270E00006662782F39464131463745442D413632322D343644302D413938332D3331353338454246344243312F76657274696365732E62696E504B01021400140006
310
080800CC70623BF270F133060000000400000036000000000000000000000000007A0E00006662782F39464131463745442D413632322D343644302D413938332D3331353338454246344243312F747269616E676C65732E62696E504B01021400140006080000CC70623B0000000000000000000000003700000000000000
310
000000000000D40E00006662782F39464131463745442D413632322D343644302D413938332D3331353338454246344243312F617474726962757465732E62696E504B01021400140006080800CC70623B08DA0BD190000000410100003600000000000000000000000000290F00006662782F39464131463745442D413632
310
322D343644302D413938332D3331353338454246344243312F6469726563746F72792E786D6C504B01021400140006080800CC70623B0D6EF93BFE000000A00100003B000000000000000000000000000D1000006662782F39464131463745442D413632322D343644302D413938332D3331353338454246344243312F7265
310
736F75726365732F636F72652E786D6C504B0506000000000E000E0080040000641100000000
  0
XRECORD
  5
D
102
{ACAD_REACTORS
330
C
102
}
330
C
100
AcDbXrecord
280
     1
270
     1
271
     1
  0
XRECORD
  5
E
102
{ACAD_REACTORS
330
C
102
}
330
C
100
AcDbXrecord
280
     1
270
     1
271
     1
  0
XRECORD
  5
F
102
{ACAD_REACTORS
330
C
102
}
330
C
100
AcDbXrecord
280
     1
 70
     0
 90
1673772943
  1
ECE7A1D2-D628-4531-984C-D00F80459256
310
504B03040A0000080000CC70623B3DEE336E79000000790000001B0000006175746F6465736B2D64657369676E2D7061636B6167652E786D6C3C3F786D6C2076657273696F6E3D22312E302220656E636F64696E673D227574662D3822203F3E3C666F726D6174733E3C666F726D61743E687474703A2F2F736368656D612E
310
6175746F6465736B2E636F6D2F64657369676E2D7061636B6167652F323030393C2F666F726D61743E3C2F666F726D6174733E504B0304140006080800CC70623BD486FD9CA0000000F4000000130000005B436F6E74656E745F54797065735D2E786D6C7D8EC10E82300C865F65E91D8A1E8C310C0EEA1BF002731658846E
310
D98AC1B77784ABF1D8FE5FBFBF75BBCE937A534CCEB38643598122B6FEE978D0B0485F9C41B54DDD7D022595594E1A469170414C76A4D9A4D207E29CF43ECE46F218070CC6BECC4078ACAA135ACF422C856C0E68EA1BF5669944DDD7BCDE7B1F8E415D77AECB980613C2E4AC91FC167A2B244592486606FC29C8FD7F045B9A
310
EF7053A7E60B504B0304140006080800CC70623BD9DDAED0EC0000007C01000008000000636F72652E786D6C8D90416EC3201045AF82665B61836D9CD8C2444DD39CA01740405C94182C03558F5F9C3852BBEB6A467FFE9B197D7EF89E6EE8CB2CC17A37002D0820E394D7D68D03A478C17B4007C117EFE32F1B20272733C0
310
2A83E0E3E2D3BC49CABB685CCCAAF3DA6CA20CC14440EA969B0182FA34932C648AD911AEC52CD5558EA6A0CF2EC329598D1E47ACCEFBECC59A050463A7EA5833865FEBDD0E37353BE3EE8DBDE3F6786A48D375FBF6CC78B9C282473B3DEFABC5C86834888A900E538A49F5419B9EB47DD5BC907D4F082F57FB1F28CDFA9F50
310
B22ED6D5F6EE030B20687EE43E10BC5CB3C8E51E54AE6B6EE207504B0304140006080800CC70623B55019EA25F0000007C00000007000000636E782E786D6C4DCB3B0E80201045D1AD90E915ED2CF8AC45050C11660C8261F98AB1B07AC9C97D42D718D865D3E909258CFD00CCE24AC6E326A164D74DC0B4128928FF326038
310
472BA13128B1252AC747C6BAB984FC68F0B87FE8960A5C09FE86CFB69FBA01504B0304140006080800CC70623BA24EB22D72010000D40300000C0000006662782F636F72652E786D6CC5535B6E833010BC8AE5DF0A6C5E49888CA3A6694ED00B38E05014B091B1518EDFE511A5A9D228FD2A1F60CDEC7A67C6986DCE4D8D7A
310
69BA4AAB0C073EC548AA5C17952A33ECECD15B61B4E1CC686DBF9561A44423333CC098B3D268D7CE50AE9595CA02AA74216750749DB418E5352C32DCE59FB211BE70162ABA93DF8AFC244AE9073ED050C759670D0840D390E18DF9F1706664C23973AE2A66B62A605A75ACA4C13C4976E1364A12EF355A2EBD384AF65EFA96
310
BC7B8BED2EA6719AAE16FB8491A199335B351775B991C2CA02F390D2D40B028F861F41BCA68B7518BFD0D59A524686F29B26D7164F36B94AD9289CE54E6D1DE6010819891F6E21228B3AD1831EC219194284CF98F06DD01008846CC5A1BEF83801D4CBDC6A1303536877A57A513B0953A94FC707FDBE6064EA84A9E3E6E0FA
310
EE8CF0E9198F7784A316AA0413C2C2F2E0ECA0934D1AE6D05A69BCDE9E91D2A611F573361E38FC1375157F5752AE6B6DFE4B11990F88CCBF0719EE23FF02504B0304140006080800CC70623B408A7D3B7C0000009D0000000B0000006662782F636E782E786D6C4DCCD10A83201886E15B91FFDC552A92A0064DBC8F581632
310
D3703A76F9ABD1C18E3E78F878E5F0D9027ABBFCF2292AE86E2D20171F69F6715550CB827B40839639A5F2770314A7CD293819B45C73AAFB45B35BA61ACAA1C1C7E7855C58C15BC331339661262CC762340413D68D77DA5B42298546CBE6573AF60CEB2F504B0304140006080800CC70623B449FB9BD290100001202000031
310
0000006662782F36394639363044362D344446342D343946362D394244322D3234314243333846323333332F636F72652E786D6C8D515B6EC32010BC0AE22B55850D98B871848994463E412FE002495162B07854397EA176A4F62F3F2C9A9D991D587EB84F37F0AD7D30CEF6905418026DA553C65E7A98E219ED203808EE9D
310
8B7F6810D871D23D2C3014FCE25D9A57483A1BB58D19B54EE9151C43D0110279CB971E06F9A5A7B11A53CC8C70ADE6515EC78BAE4895DB992778883E0700CB907242D17643D7E2538BD869608875438BBAE38922CAC8F1BDD90DB4691A5E2F42C153326A951B95E398B3D1FE599322163C9AE9115F7A3D46ADA0A018778810
310
84E907617BDCEE297BC5BB3DC6BC2EF47FA234AB2745C9D8D8D035EE220B50105E2F0DC1954B9FB747187D9F9D8FA0CCDB042D5FA0C015C65B42DF78BD10F3F3B363CB56C7109DCFDFBBB97E662ED92EB62D13BC2E1BCAE5777DB9966D8A1F504B0304140006080800CC70623BAD7543B64E01000033030000300000006662
310
782F36394639363044362D344446342D343946362D394244322D3234314243333846323333332F636E782E786D6CD593CD6EC32010845F0571AD6CE3D48AD20813A9873E410FBD12D82434182C7EAAE6EDBB2424CD25871E7B41D6EC30B3FA84F9E67BB2E40B4234DE8DB46F1925E094D7C6ED479AD3AE5951B2113C789FEE
310
6C943839C1488B4C05DF079FE72A69D8C96C13AAD6B8631503449F83828872B949AC57D26200B826A308D316B4064D6E46FCDA41C05550DC9E483A00797BFD207EFB092A45DE9514C1BBD22178396BD39D891265658C238DEA00936C654E5E433CB65A26D9F6EDB5EBC14EBF49A45CB856E66048291F6939A9A81BB5C89177
310
38143CA680F4AA299D66A042CEB3354A2684DC9D8D178FE0D9B8B41CAAD720F880EE7EF93C0C18769E099ECC04D5A102C8049A8A05632F4DDF376CF1DE0F6BB65C2F8627B65A33C6BB62177CEBBDAD973006829F89F22E814B54F4BC2BE347F8AA8F681390B50FA73F804400B5F542E796F19FF974E7F78DB802FE05E20750
310
4B0304140006080800CC70623B8D05915C650500003B100000340000006662782F36394639363044362D344446342D343946362D394244322D3234314243333846323333332F6F626A656374732E786D6CAD575B6FA33814FE2B887D06429276DA1565D4266D158D3A339A6846FB502932E050B66023DB74D2FDF5FB190C01
310
9276B2973C046C8ECFF53B17071F77456EBD502133CEAE6CDF9DD81665314F32965ED995DA3A17B6F5310C04E7AA47665B8C14F4CAD6DB7618A48257A5D94AE89654B91AEDDEDDFC61C998326A5B714EA4BCB265FC440BE2924AF184CA6737218AB8E976E7FA6E4338649B0A523E8D98964450A6A029F619B8588D52FE7039
310
B1BD30F0F4F730D0FF866AF6369557DB33949F31A9088B0F848DD8CCFCF9F2767A76E99CCDE733677E3EF59D9BBB9BA5E37F984D16E78BC5E5F5ED25044B25C0C96822E8D60EEFE11B91C581D77CEA34368A1F5329E68CD1B8B61F16D63A1B8E092D294B10C78C4A48EB593D192E7DED9BDEE7995E1B91FDEDD3ACEA9FE831
310
6A756F9F7D4D79F4274C90A7A04248AA51D5F8C718DAE06FB2F75AC4796EBE65D22A88A22223B995679120E2D50E41AA49C260C046A35368846B0BECD0DFF3EBEB8AD4F835768F69B9ADF25C43D30E6B646F807FAA64AD59F61715C7A54127C4AACA98BA3006A9D792DAE165E0D59B61A01FB3A9F9D838D2DAE62445C86166
310
F37564E842E7DE6A69879FEEA2DD5AE7E371E1A5E025154AC307D06A03D73EB5978C58FFA4C8E9033066E0F3BD53BEC1F39F91BE7B55103791EDE6BBB991A2046172CB4581D8B893FA674DDA17A77B3B7C413D1B511FD2743BFF8A38F03A658705E3ADF8015C3A3417FF3D7E439FF591DA0B5F18BC20C1B8981957AE6392A3
310
F43C640C01D1A0B4728E2DD4F26DB4B3C3152A252A3B4E913CEC1C72F012782FF88EFF8637AA552DBEF76408E8A8DE9E50F9E1CB3A2DA0DB1B6039A893B56063DC5B3E3FFB5F72E67AB9FEB4AEC496C4F4C1149625DD662C53E89D7BF0F6151A046260D1337DFDC94502430F83B0EE07A130A224BCAD7DAE1D9FB6CD422FF6
310
920702629C4BB9AE79C12F243C6432A6794E18E5552BA56B431AAB5D91317302B2B071E86C3A42B1A02F999E24061403B5D0EB639195DA655DD3EBEAB4FB862DDF579F014AD0E73C22F99E28DA57FB98E75C6CA2D74D53086D600F4786E0FE3144B771A8A7B900F03594DB8A633CBC49B2EDB69228BB479CF863B5E807AAAB
310
23872F6DFEB4129B949CA33823F58830E86D65621E10047D9DB34D862E8EAC3C2ABC2F7B2C40D67CDFE01F5545B92105AF983AC54D93D69E56FB8E797F88913F898A9FEC705D3F9D1B54EC8426FB500D40A03BD0119B06E1B95DDC7EB8F6975367793EBD70E66733DFB9BC982F9CE564727731999F5D4ECFCE3B8D6A4DC2A0
310
6D50FD148437D110834A64C6CDDF57FBACB5C307A2A477DFE4939736CFEF2B175371E0E10CF0DD1D5C15654E0BCA14D1E87DD02FF93782A162C0A3D95F1524A52770F972BF1EE9809D13CE7DD599467F8ECE9ADD85CE85A34CD45355448C64F9E8A031DC2D596ACC6E5DD93D9B82DE2EF5CAF81363A8E47996A0DE24564A79
310
4115AACE09C55E14540231FDA13C319787134EBF34E3A022514E5B4D9E0826E25C02D5805B15ABE1BEF51B26383D445DD9E875EE33FE4C22DA16427D65A3BCA92CA6D28DD01DF5DC53330704308475351050232CCD31583787BA75774AFB06E5070DD0C8EF484E19968C5D83BA5B90B244D31E54D55A372320FE4786B7EA58
310
44E135AA5467CB7EA333A61683CC6A8C3257034C10CF46F40EF9F5BE59BE5BD30C3C72D235E95D10345C1D45445A5F0BB47E46A5EBE5570F9380B5FA629579952296A773720405982B9DE04011506178964401AA8BDF1FBF0A8EAB6861DD6580C0E38217056766716DAEB2D6FA0917D3E4116581EADB879C4E7CFFB11EFACD
310
3D641311495D92C8676CB409A72D18610D803CE8A626049E8EC1887CB5B44CC39883690DDA8399B4B9855B481E7D71D4A9D22F96E5BB73BF5793020C02137BF837504B0304140006080000CC70623B000000000000000000000000350000006662782F36394639363044362D344446342D343946362D394244322D32343142
310
43333846323333332F76657274696365732E62696E504B0304140006080800CC70623BF270F1330600000004000000360000006662782F36394639363044362D344446342D343946362D394244322D3234314243333846323333332F747269616E676C65732E62696E636660600000504B0304140006080000CC70623B0000
310
00000000000000000000370000006662782F36394639363044362D344446342D343946362D394244322D3234314243333846323333332F617474726962757465732E62696E504B0304140006080800CC70623B08DA0BD19000000041010000360000006662782F36394639363044362D344446342D343946362D394244322D
310
3234314243333846323333332F6469726563746F72792E786D6C858F410AC3201045AF22B36F53E9A60B35CBEEBAE80D244E44489C6234F4F835464A48035D0DF398FF9F8AF63D0E6CC63039F212F8F9020C7D47C6792B21C5FE7403D62A1188E2E60C98D7234A5830286103A55745067B9D86B8A3CF9C7F90C11DE607FB14
310
4396D7B6A82D282E9A152AD114D5EF2CB866EEE831B8EEA07A7BB5A8D7D61A2BAAEB7FD5F70921FF497D00504B0304140006080800CC70623BCA768048FE000000A00100003B0000006662782F36394639363044362D344446342D343946362D394244322D3234314243333846323333332F7265736F75726365732F636F72
310
652E786D6C8D50596E833010BD0A9ADFCA60D600328E9AA639412F609909B1126CE4A5EAF16B0295DABFFECC8CDEA2797AECF8353F924FB44E193D409E5248504B332A3D0D10FC95B4901C39B3C6F85F3248B49871801506CE266BC2B243D2688FDA47549B11775038871E12F988C7004EDE7016A9083E2ADC3D5D84BC8B09
310
D33C8D74D471E6BC8D0192EDC93A815B742658898E651BCB59086ADC356A8C3FD555A1055ED7E7E254D615792D0F075295F585746FF53B694EE78A565DD736979A65AB9933AFE69F8CD2A2F038022F28ED489E135A7CE4554F9BBEA85E68DB53CAB255FEC71496F19FA6A0B42F8B3DEE6673C0F318E4497096AD7DC5F52C33
310
EEB55BFE0D504B010214000A0000080000CC70623B3DEE336E79000000790000001B00000000000000000000000000000000006175746F6465736B2D64657369676E2D7061636B6167652E786D6C504B01021400140006080800CC70623BD486FD9CA0000000F40000001300000000000000000000000000B20000005B436F
310
6E74656E745F54797065735D2E786D6C504B01021400140006080800CC70623BD9DDAED0EC0000007C010000080000000000000000000000000083010000636F72652E786D6C504B01021400140006080800CC70623B55019EA25F0000007C000000070000000000000000000000000095020000636E782E786D6C504B0102
310
1400140006080800CC70623BA24EB22D72010000D40300000C00000000000000000000000000190300006662782F636F72652E786D6C504B01021400140006080800CC70623B408A7D3B7C0000009D0000000B00000000000000000000000000B50400006662782F636E782E786D6C504B01021400140006080800CC70623B
310
449FB9BD290100001202000031000000000000000000000000005A0500006662782F36394639363044362D344446342D343946362D394244322D3234314243333846323333332F636F72652E786D6C504B01021400140006080800CC70623BAD7543B64E010000330300003000000000000000000000000000D20600006662
310
782F36394639363044362D344446342D343946362D394244322D3234314243333846323333332F636E782E786D6C504B01021400140006080800CC70623B8D05915C650500003B10000034000000000000000000000000006E0800006662782F36394639363044362D344446342D343946362D394244322D32343142433338
310
46323333332F6F626A656374732E786D6C504B01021400140006080000CC70623B0000000000000000000000003500000000000000000000000000250E00006662782F36394639363044362D344446342D343946362D394244322D3234314243333846323333332F76657274696365732E62696E504B010214001400060808
310
00CC70623BF270F13306000000040000003600000000000000000000000000780E00006662782F36394639363044362D344446342D343946362D394244322D3234314243333846323333332F747269616E676C65732E62696E504B01021400140006080000CC70623B00000000000000000000000037000000000000000000
310
00000000D20E00006662782F36394639363044362D344446342D343946362D394244322D3234314243333846323333332F617474726962757465732E62696E504B01021400140006080800CC70623B08DA0BD190000000410100003600000000000000000000000000270F00006662782F36394639363044362D344446342D
310
343946362D394244322D3234314243333846323333332F6469726563746F72792E786D6C504B01021400140006080800CC70623BCA768048FE000000A00100003B000000000000000000000000000B1000006662782F36394639363044362D344446342D343946362D394244322D3234314243333846323333332F7265736F
310
75726365732F636F72652E786D6C504B0506000000000E000E0080040000621100000000
  0
XRECORD
  5
10
102
{ACAD_REACTORS
330
C
102
}
330
C
100
AcDbXrecord
280
     1
270
     1
271
     1
  0
XRECORD
  5
11
102
{ACAD_REACTORS
330
C
102
}
330
C
100
AcDbXrecord
280
     1
270
     1
271
     1
  0
CELLSTYLEMAP
  5
415
102
{ACAD_REACTORS
330
4F
102
}
330
4F
100
AcDbCellStyleMap
 90
        3
300
CELLSTYLE
  1
TABLEFORMAT_BEGIN
 90
        5
170
     1
 91
        0
 92
    32768
 62
   257
 93
        1
300
CONTENTFORMAT
  1
CONTENTFORMAT_BEGIN
 90
        0
 91
        0
 92
      512
 93
        0
300

 40
0.0
140
1.0
 94
        5
 62
     0
340
21
144
6.0
309
CONTENTFORMAT_END
171
     1
301
MARGIN
  1
CELLMARGIN_BEGIN
 40
1.5
 40
1.5
 40
1.5
 40
1.5
 40
4.5
 40
4.5
309
CELLMARGIN_END
 94
        6
 95
        1
302
GRIDFORMAT
  1
GRIDFORMAT_BEGIN
 90
        0
 91
        1
 62
     0
 92
       -2
340
24
 93
        0
 40
1.125
309
GRIDFORMAT_END
 95
        2
302
GRIDFORMAT
  1
GRIDFORMAT_BEGIN
 90
        0
 91
        1
 62
     0
 92
       -2
340
24
 93
        0
 40
1.125
309
GRIDFORMAT_END
 95
        4
302
GRIDFORMAT
  1
GRIDFORMAT_BEGIN
 90
        0
 91
        1
 62
     0
 92
       -2
340
24
 93
        0
 40
1.125
309
GRIDFORMAT_END
 95
        8
302
GRIDFORMAT
  1
GRIDFORMAT_BEGIN
 90
        0
 91
        1
 62
     0
 92
       -2
340
24
 93
        0
 40
1.125
309
GRIDFORMAT_END
 95
       16
302
GRIDFORMAT
  1
GRIDFORMAT_BEGIN
 90
        0
 91
        1
 62
     0
 92
       -2
340
24
 93
        0
 40
1.125
309
GRIDFORMAT_END
 95
       32
302
GRIDFORMAT
  1
GRIDFORMAT_BEGIN
 90
        0
 91
        1
 62
     0
 92
       -2
340
24
 93
        0
 40
1.125
309
GRIDFORMAT_END
309
TABLEFORMAT_END
  1
CELLSTYLE_BEGIN
 90
        1
 91
        1
300
_TITLE
309
CELLSTYLE_END
300
CELLSTYLE
  1
TABLEFORMAT_BEGIN
 90
        5
170
     1
 91
        0
 92
        0
 62
   257
 93
        1
300
CONTENTFORMAT
  1
CONTENTFORMAT_BEGIN
 90
        0
 91
        0
 92
      512
 93
        0
300

 40
0.0
140
1.0
 94
        5
 62
     0
340
21
144
4.5
309
CONTENTFORMAT_END
171
     1
301
MARGIN
  1
CELLMARGIN_BEGIN
 40
1.5
 40
1.5
 40
1.5
 40
1.5
 40
4.5
 40
4.5
309
CELLMARGIN_END
 94
        6
 95
        1
302
GRIDFORMAT
  1
GRIDFORMAT_BEGIN
 90
        0
 91
        1
 62
     0
 92
       -2
340
24
 93
        0
 40
1.125
309
GRIDFORMAT_END
 95
        2
302
GRIDFORMAT
  1
GRIDFORMAT_BEGIN
 90
        0
 91
        1
 62
     0
 92
       -2
340
24
 93
        0
 40
1.125
309
GRIDFORMAT_END
 95
        4
302
GRIDFORMAT
  1
GRIDFORMAT_BEGIN
 90
        0
 91
        1
 62
     0
 92
       -2
340
24
 93
        0
 40
1.125
309
GRIDFORMAT_END
 95
        8
302
GRIDFORMAT
  1
GRIDFORMAT_BEGIN
 90
        0
 91
        1
 62
     0
 92
       -2
340
24
 93
        0
 40
1.125
309
GRIDFORMAT_END
 95
       16
302
GRIDFORMAT
  1
GRIDFORMAT_BEGIN
 90
        0
 91
        1
 62
     0
 92
       -2
340
24
 93
        0
 40
1.125
309
GRIDFORMAT_END
 95
       32
302
GRIDFORMAT
  1
GRIDFORMAT_BEGIN
 90
        0
 91
        1
 62
     0
 92
       -2
340
24
 93
        0
 40
1.125
309
GRIDFORMAT_END
309
TABLEFORMAT_END
  1
CELLSTYLE_BEGIN
 90
        2
 91
        1
300
_HEADER
309
CELLSTYLE_END
300
CELLSTYLE
  1
TABLEFORMAT_BEGIN
 90
        5
170
     1
 91
        0
 92
        0
 62
   257
 93
        1
300
CONTENTFORMAT
  1
CONTENTFORMAT_BEGIN
 90
        0
 91
        0
 92
      512
 93
        0
300

 40
0.0
140
1.0
 94
        2
 62
     0
340
21
144
4.5
309
CONTENTFORMAT_END
171
     1
301
MARGIN
  1
CELLMARGIN_BEGIN
 40
1.5
 40
1.5
 40
1.5
 40
1.5
 40
4.5
 40
4.5
309
CELLMARGIN_END
 94
        6
 95
        1
302
GRIDFORMAT
  1
GRIDFORMAT_BEGIN
 90
        0
 91
        1
 62
     0
 92
       -2
340
24
 93
        0
 40
1.125
309
GRIDFORMAT_END
 95
        2
302
GRIDFORMAT
  1
GRIDFORMAT_BEGIN
 90
        0
 91
        1
 62
     0
 92
       -2
340
24
 93
        0
 40
1.125
309
GRIDFORMAT_END
 95
        4
302
GRIDFORMAT
  1
GRIDFORMAT_BEGIN
 90
        0
 91
        1
 62
     0
 92
       -2
340
24
 93
        0
 40
1.125
309
GRIDFORMAT_END
 95
        8
302
GRIDFORMAT
  1
GRIDFORMAT_BEGIN
 90
        0
 91
        1
 62
     0
 92
       -2
340
24
 93
        0
 40
1.125
309
GRIDFORMAT_END
 95
       16
302
GRIDFORMAT
  1
GRIDFORMAT_BEGIN
 90
        0
 91
        1
 62
     0
 92
       -2
340
24
 93
        0
 40
1.125
309
GRIDFORMAT_END
 95
       32
302
GRIDFORMAT
  1
GRIDFORMAT_BEGIN
 90
        0
 91
        1
 62
     0
 92
       -2
340
24
 93
        0
 40
1.125
309
GRIDFORMAT_END
309
TABLEFORMAT_END
  1
CELLSTYLE_BEGIN
 90
        3
 91
        2
300
_DATA
309
CELLSTYLE_END
  0
ENDSEC
  0
SECTION
  2
ACDSDATA
 70
     2
 71
     8
  0
ACDSSCHEMA
 90
        0
  1
AcDb_Thumbnail_Schema
  2
AcDbDs::ID
280
    10
 91
        8
  2
Thumbnail_Data
280
    15
 91
        0
101
ACDSRECORD
 95
        0
 90
        1
  2
AcDbDs::TreatedAsObjectData
280
     1
291
     1
101
ACDSRECORD
 95
        0
 90
        2
  2
AcDbDs::Legacy
280
     1
291
     1
101
ACDSRECORD
  1
AcDbDs::ID
 90
        3
  2
AcDs:Indexable
280
     1
291
     1
101
ACDSRECORD
  1
AcDbDs::ID
 90
        4
  2
AcDbDs::HandleAttribute
280
     7
282
     1
  0
ACDSSCHEMA
 90
        1
  1
AcDbDs::TreatedAsObjectDataSchema
  2
AcDbDs::TreatedAsObjectData
280
     1
 91
        0
  0
ACDSSCHEMA
 90
        2
  1
AcDbDs::LegacySchema
  2
AcDbDs::Legacy
280
     1
 91
        0
  0
ACDSSCHEMA
 90
        3
  1
AcDbDs::IndexedPropertySchema
  2
AcDs:Indexable
280
     1
 91
        0
  0
ACDSSCHEMA
 90
        4
  1
AcDbDs::HandleAttributeSchema
  2
AcDbDs::HandleAttribute
280
     7
 91
        1
284
     1
  0
ACDSRECORD
 90
        0
  2
AcDbDs::ID
280
    10
320
15
  2
Thumbnail_Data
280
    15
 94
     1136
310
89504E470D0A1A0A0000000D49484452000001000000008B0803000000B9ACB7FB00000300504C5445000000FFFFFF0000000000000000000000000000000000000000000000000000000000330000660000990000CC0000FF0033000033330033660033990033CC0033FF0066000066330066660066990066CC0066FF0099
310
000099330099660099990099CC0099FF00CC0000CC3300CC6600CC9900CCCC00CCFF00FF0000FF3300FF6600FF9900FFCC00FFFF3300003300333300663300993300CC3300FF3333003333333333663333993333CC3333FF3366003366333366663366993366CC3366FF3399003399333399663399993399CC3399FF33CC00
310
33CC3333CC6633CC9933CCCC33CCFF33FF0033FF3333FF6633FF9933FFCC33FFFF6600006600336600666600996600CC6600FF6633006633336633666633996633CC6633FF6666006666336666666666996666CC6666FF6699006699336699666699996699CC6699FF66CC0066CC3366CC6666CC9966CCCC66CCFF66FF0066
310
FF3366FF6666FF9966FFCC66FFFF9900009900339900669900999900CC9900FF9933009933339933669933999933CC9933FF9966009966339966669966999966CC9966FF9999009999339999669999999999CC9999FF99CC0099CC3399CC6699CC9999CCCC99CCFF99FF0099FF3399FF6699FF9999FFCC99FFFFCC0000CC00
310
33CC0066CC0099CC00CCCC00FFCC3300CC3333CC3366CC3399CC33CCCC33FFCC6600CC6633CC6666CC6699CC66CCCC66FFCC9900CC9933CC9966CC9999CC99CCCC99FFCCCC00CCCC33CCCC66CCCC99CCCCCCCCCCFFCCFF00CCFF33CCFF66CCFF99CCFFCCCCFFFFFF0000FF0033FF0066FF0099FF00CCFF00FFFF3300FF3333
310
FF3366FF3399FF33CCFF33FFFF6600FF6633FF6666FF6699FF66CCFF66FFFF9900FF9933FF9966FF9999FF99CCFF99FFFFCC00FFCC33FFCC66FFCC99FFCCCCFFCCFFFFFF00FFFF33FFFF66FFFF99FFFFCCFFFFFF0000000D0D0D1A1A1A2828283535354343435050505D5D5D6B6B6B787878868686939393A1A1A1AEAEAEBB
310
BBBBC9C9C9D6D6D6E4E4E4F1F1F1FFFFFF0000000000000000000000000000000000000000000000000000000000003AE5ACE90000012B4944415478DAEDDA4B7283300C0050CED2334A4767DF69123E7120B49D4E17D27B8B6422563642B24DA60900000000000000000000FE47361E77B6BCD929E9F9C6F39F4D8B40169F
310
80188616F108468E95A2E40CDC861963600C6E53439312B87CCF7972817A85E0B0E2576F01321AB8A80CF9B466342DD06003BC45E6F563FD2AB8197E32D71DEB7B73D371BF2CFC5B97FA8FDC3D15190D33605E7FE549FBCFF293F0A659742A115FE79FB9B484DC1D0C3510BFB852A6054C797428346F2951F98EE77893DB37
310
C58E8FFCED7D485C058AB6BF7CCCC7B200BA77BDD8055AE4435E05E87E7850B814C65016A3CDDBA1FB58E3792594D341EDCB46991DC517C07B6D0F827EB0422A9C066BA58BA3CDD134EE90289C0A677F8669722406000000000000000000000000FC994FAC1A5201278BDB450000000049454E44AE426082
  0
ACDSRECORD
 90
        0
  2
AcDbDs::ID
280
    10
320
1C
  2
Thumbnail_Data
280
    15
 94
     1053
310
89504E470D0A1A0A0000000D49484452000000B40000010008030000002D3FACD700000300504C5445FFFFFFFFFFFFFFFFFF0000000000000000000000000000000000000000000000000000330000660000990000CC0000FF0033000033330033660033990033CC0033FF0066000066330066660066990066CC0066FF0099
310
000099330099660099990099CC0099FF00CC0000CC3300CC6600CC9900CCCC00CCFF00FF0000FF3300FF6600FF9900FFCC00FFFF3300003300333300663300993300CC3300FF3333003333333333663333993333CC3333FF3366003366333366663366993366CC3366FF3399003399333399663399993399CC3399FF33CC00
310
33CC3333CC6633CC9933CCCC33CCFF33FF0033FF3333FF6633FF9933FFCC33FFFF6600006600336600666600996600CC6600FF6633006633336633666633996633CC6633FF6666006666336666666666996666CC6666FF6699006699336699666699996699CC6699FF66CC0066CC3366CC6666CC9966CCCC66CCFF66FF0066
310
FF3366FF6666FF9966FFCC66FFFF9900009900339900669900999900CC9900FF9933009933339933669933999933CC9933FF9966009966339966669966999966CC9966FF9999009999339999669999999999CC9999FF99CC0099CC3399CC6699CC9999CCCC99CCFF99FF0099FF3399FF6699FF9999FFCC99FFFFCC0000CC00
310
33CC0066CC0099CC00CCCC00FFCC3300CC3333CC3366CC3399CC33CCCC33FFCC6600CC6633CC6666CC6699CC66CCCC66FFCC9900CC9933CC9966CC9999CC99CCCC99FFCCCC00CCCC33CCCC66CCCC99CCCCCCCCCCFFCCFF00CCFF33CCFF66CCFF99CCFFCCCCFFFFFF0000FF0033FF0066FF0099FF00CCFF00FFFF3300FF3333
310
FF3366FF3399FF33CCFF33FFFF6600FF6633FF6666FF6699FF66CCFF66FFFF9900FF9933FF9966FF9999FF99CCFF99FFFFCC00FFCC33FFCC66FFCC99FFCCCCFFCCFFFFFF00FFFF33FFFF66FFFF99FFFFCCFFFFFF0000000D0D0D1A1A1A2828283535354343435050505D5D5D6B6B6B787878868686939393A1A1A1AEAEAEBB
310
BBBBC9C9C9D6D6D6E4E4E4F1F1F1FFFFFF000000000000000000000000000000000000000000000000000000000000AD4AB4E4000000D84944415478DAEDCE310D00200003B0F997C93D116000014B5A054D07A567CF4B678FB4B4B4B4B4B4B4B4B4B4B4B4B4B4B4B4B4B4B4B4B4B4B4B4B4B4B4B4B4B4B4B4B4B4B4B4B4B4
310
B4B4B4B4B4B4B4B4B4B4B4B4B4B4B4B4B4B4B4B4B4B4B4B4B4B4B4B4B4B4B4B4B4B4B4B4B4B4B4B4B4B4B4B4B4B4B4B4B4B4B4B4B4B4B4B4B4B4B4B4B4B4B4B4B4B4B4B4B4B4B4B4B4B4B4B4B4B4B4B4B4B4B4B4B4B4B4B4B4B4B4B4B4B4B4B4B4B4B4B4B4B4B4B4B4B4B4B4B4B4B4B4B4B4B4B4B4B4B4B4B4B4B4B4B4B4B4
310
B4B4B4B4B4B4B4B4B4B4F437BD271D7401463350C91B1146640000000049454E44AE426082
  0
ENDSEC
  0
EOF
