  0
SECTION
  2
HEADER
  9
$ACADVER
  1
AC1032
  9
$ACADMAINTVER
 90
      229
  9
$DWGCODEPAGE
  3
ANSI_1252
  9
$REQUIREDVERSIONS
160
                 0
  9
$INSBASE
 10
0.0
 20
0.0
 30
0.0
  9
$EXTMIN
 10
-6923.818728580406
 20
-9023.201414709971
 30
0.0
  9
$EXTMAX
 10
106459.4061600404
 20
93710.50067470404
 30
0.0
  9
$LIMMIN
 10
0.0
 20
0.0
  9
$LIMMAX
 10
420.0
 20
297.0
  9
$ORTHOMODE
 70
     0
  9
$REGENMODE
 70
     1
  9
$FILLMODE
 70
     1
  9
$QTEXTMODE
 70
     0
  9
$MIRRTEXT
 70
     0
  9
$LTSCALE
 40
1.0
  9
$ATTMODE
 70
     1
  9
$TEXTSIZE
 40
2.5
  9
$TRACEWID
 40
1.0
  9
$TEXTSTYLE
  7
Standard
  9
$CLAYER
  8
0
  9
$CELTYPE
  6
Continuous
  9
$CECOLOR
 62
   256
  9
$CELTSCALE
 40
1.0
  9
$DISPSILH
 70
     0
  9
$DIMSCALE
 40
1.0
  9
$DIMASZ
 40
2.5
  9
$DIMEXO
 40
0.625
  9
$DIMDLI
 40
3.75
  9
$DIMRND
 40
0.0
  9
$DIMDLE
 40
0.0
  9
$DIMEXE
 40
1.25
  9
$DIMTP
 40
0.0
  9
$DIMTM
 40
0.0
  9
$DIMTXT
 40
2.5
  9
$DIMCEN
 40
2.5
  9
$DIMTSZ
 40
0.0
  9
$DIMTOL
 70
     0
  9
$DIMLIM
 70
     0
  9
$DIMTIH
 70
     0
  9
$DIMTOH
 70
     0
  9
$DIMSE1
 70
     0
  9
$DIMSE2
 70
     0
  9
$DIMTAD
 70
     1
  9
$DIMZIN
 70
     8
  9
$DIMBLK
  1

  9
$DIMASO
 70
     1
  9
$DIMSHO
 70
     1
  9
$DIMPOST
  1

  9
$DIMAPOST
  1

  9
$DIMALT
 70
     0
  9
$DIMALTD
 70
     3
  9
$DIMALTF
 40
0.03937007874016
  9
$DIMLFAC
 40
1.0
  9
$DIMTOFL
 70
     1
  9
$DIMTVP
 40
0.0
  9
$DIMTIX
 70
     0
  9
$DIMSOXD
 70
     0
  9
$DIMSAH
 70
     0
  9
$DIMBLK1
  1

  9
$DIMBLK2
  1

  9
$DIMSTYLE
  2
ISO-25
  9
$DIMCLRD
 70
     0
  9
$DIMCLRE
 70
     0
  9
$DIMCLRT
 70
     0
  9
$DIMTFAC
 40
1.0
  9
$DIMGAP
 40
0.625
  9
$DIMJUST
 70
     0
  9
$DIMSD1
 70
     0
  9
$DIMSD2
 70
     0
  9
$DIMTOLJ
 70
     0
  9
$DIMTZIN
 70
     8
  9
$DIMALTZ
 70
     0
  9
$DIMALTTZ
 70
     0
  9
$DIMUPT
 70
     0
  9
$DIMDEC
 70
     2
  9
$DIMTDEC
 70
     2
  9
$DIMALTU
 70
     2
  9
$DIMALTTD
 70
     3
  9
$DIMTXSTY
  7
Standard
  9
$DIMAUNIT
 70
     0
  9
$DIMADEC
 70
     0
  9
$DIMALTRND
 40
0.0
  9
$DIMAZIN
 70
     0
  9
$DIMDSEP
 70
    44
  9
$DIMATFIT
 70
     3
  9
$DIMFRAC
 70
     0
  9
$DIMLDRBLK
  1

  9
$DIMLUNIT
 70
     2
  9
$DIMLWD
 70
    -2
  9
$DIMLWE
 70
    -2
  9
$DIMTMOVE
 70
     0
  9
$DIMFXL
 40
1.0
  9
$DIMFXLON
 70
     0
  9
$DIMJOGANG
 40
0.7853981633974483
  9
$DIMTFILL
 70
     0
  9
$DIMTFILLCLR
 70
     0
  9
$DIMARCSYM
 70
     0
  9
$DIMLTYPE
  6

  9
$DIMLTEX1
  6

  9
$DIMLTEX2
  6

  9
$DIMTXTDIRECTION
 70
     0
  9
$LUNITS
 70
     2
  9
$LUPREC
 70
     4
  9
$SKETCHINC
 40
1.0
  9
$FILLETRAD
 40
0.0
  9
$AUNITS
 70
     0
  9
$AUPREC
 70
     0
  9
$MENU
  1
.
  9
$ELEVATION
 40
0.0
  9
$PELEVATION
 40
0.0
  9
$THICKNESS
 40
0.0
  9
$LIMCHECK
 70
     0
  9
$CHAMFERA
 40
0.0
  9
$CHAMFERB
 40
0.0
  9
$CHAMFERC
 40
0.0
  9
$CHAMFERD
 40
0.0
  9
$SKPOLY
 70
     0
  9
$TDCREATE
 40
2459748.677916667
  9
$TDUCREATE
 40
2459748.177916667
  9
$TDUPDATE
 40
2459748.680057870
  9
$TDUUPDATE
 40
2459748.180057870
  9
$TDINDWG
 40
0.0038310185
  9
$TDUSRTIMER
 40
0.0038310185
  9
$USRTIMER
 70
     1
  9
$ANGBASE
 50
0.0
  9
$ANGDIR
 70
     0
  9
$PDMODE
 70
     0
  9
$PDSIZE
 40
0.0
  9
$PLINEWID
 40
0.0
  9
$SPLFRAME
 70
     0
  9
$SPLINETYPE
 70
     6
  9
$SPLINESEGS
 70
     8
  9
$HANDSEED
  5
171
  9
$SURFTAB1
 70
     6
  9
$SURFTAB2
 70
     6
  9
$SURFTYPE
 70
     6
  9
$SURFU
 70
     6
  9
$SURFV
 70
     6
  9
$UCSBASE
  2

  9
$UCSNAME
  2

  9
$UCSORG
 10
0.0
 20
0.0
 30
0.0
  9
$UCSXDIR
 10
1.0
 20
0.0
 30
0.0
  9
$UCSYDIR
 10
0.0
 20
1.0
 30
0.0
  9
$UCSORTHOREF
  2

  9
$UCSORTHOVIEW
 70
     0
  9
$UCSORGTOP
 10
0.0
 20
0.0
 30
0.0
  9
$UCSORGBOTTOM
 10
0.0
 20
0.0
 30
0.0
  9
$UCSORGLEFT
 10
0.0
 20
0.0
 30
0.0
  9
$UCSORGRIGHT
 10
0.0
 20
0.0
 30
0.0
  9
$UCSORGFRONT
 10
0.0
 20
0.0
 30
0.0
  9
$UCSORGBACK
 10
0.0
 20
0.0
 30
0.0
  9
$PUCSBASE
  2

  9
$PUCSNAME
  2

  9
$PUCSORG
 10
0.0
 20
0.0
 30
0.0
  9
$PUCSXDIR
 10
1.0
 20
0.0
 30
0.0
  9
$PUCSYDIR
 10
0.0
 20
1.0
 30
0.0
  9
$PUCSORTHOREF
  2

  9
$PUCSORTHOVIEW
 70
     0
  9
$PUCSORGTOP
 10
0.0
 20
0.0
 30
0.0
  9
$PUCSORGBOTTOM
 10
0.0
 20
0.0
 30
0.0
  9
$PUCSORGLEFT
 10
0.0
 20
0.0
 30
0.0
  9
$PUCSORGRIGHT
 10
0.0
 20
0.0
 30
0.0
  9
$PUCSORGFRONT
 10
0.0
 20
0.0
 30
0.0
  9
$PUCSORGBACK
 10
0.0
 20
0.0
 30
0.0
  9
$USERI1
 70
     0
  9
$USERI2
 70
     0
  9
$USERI3
 70
     0
  9
$USERI4
 70
     0
  9
$USERI5
 70
     0
  9
$USERR1
 40
0.0
  9
$USERR2
 40
0.0
  9
$USERR3
 40
0.0
  9
$USERR4
 40
0.0
  9
$USERR5
 40
0.0
  9
$WORLDVIEW
 70
     1
  9
$SHADEDGE
 70
     3
  9
$SHADEDIF
 70
    70
  9
$TILEMODE
 70
     1
  9
$MAXACTVP
 70
    64
  9
$PINSBASE
 10
0.0
 20
0.0
 30
0.0
  9
$PLIMCHECK
 70
     0
  9
$PEXTMIN
 10
0.0010420625153245
 20
0.0014770624390508
 30
0.0
  9
$PEXTMAX
 10
208.4114610011634
 20
295.4110107424506
 30
0.0
  9
$PLIMMIN
 10
-0.7937499880790711
 20
-0.7937499880790711
  9
$PLIMMAX
 10
209.2062500119209
 20
296.2062500119209
  9
$UNITMODE
 70
     0
  9
$VISRETAIN
 70
     1
  9
$PLINEGEN
 70
     0
  9
$PSLTSCALE
 70
     1
  9
$TREEDEPTH
 70
  3020
  9
$CMLSTYLE
  2
Standard
  9
$CMLJUST
 70
     0
  9
$CMLSCALE
 40
20.0
  9
$PROXYGRAPHICS
 70
     1
  9
$MEASUREMENT
 70
     1
  9
$CELWEIGHT
370
    -1
  9
$ENDCAPS
280
     0
  9
$JOINSTYLE
280
     0
  9
$LWDISPLAY
290
     0
  9
$INSUNITS
 70
     4
  9
$HYPERLINKBASE
  1

  9
$STYLESHEET
  1

  9
$XEDIT
290
     1
  9
$CEPSNTYPE
380
     0
  9
$PSTYLEMODE
290
     1
  9
$FINGERPRINTGUID
  2
{1878D035-8B35-DD4E-9247-DA4F58AFF3F3}
  9
$VERSIONGUID
  2
{33072BFC-5538-C043-AC64-CD5918ACB046}
  9
$EXTNAMES
290
     1
  9
$PSVPSCALE
 40
0.0
  9
$OLESTARTUP
290
     0
  9
$SORTENTS
280
   127
  9
$INDEXCTL
280
     0
  9
$HIDETEXT
280
     1
  9
$XCLIPFRAME
280
     2
  9
$HALOGAP
280
     0
  9
$OBSCOLOR
 70
   257
  9
$OBSLTYPE
280
     0
  9
$INTERSECTIONDISPLAY
280
     0
  9
$INTERSECTIONCOLOR
 70
   257
  9
$DIMASSOC
280
     2
  9
$PROJECTNAME
  1

  9
$CAMERADISPLAY
290
     0
  9
$LENSLENGTH
 40
50.0
  9
$CAMERAHEIGHT
 40
0.0
  9
$STEPSPERSEC
 40
2.0
  9
$STEPSIZE
 40
6.0
  9
$3DDWFPREC
 40
2.0
  9
$PSOLWIDTH
 40
5.0
  9
$PSOLHEIGHT
 40
80.0
  9
$LOFTANG1
 40
1.570796326794896
  9
$LOFTANG2
 40
1.570796326794896
  9
$LOFTMAG1
 40
0.0
  9
$LOFTMAG2
 40
0.0
  9
$LOFTPARAM
 70
     7
  9
$LOFTNORMALS
280
     1
  9
$LATITUDE
 40
37.795
  9
$LONGITUDE
 40
-122.394
  9
$NORTHDIRECTION
 40
0.0
  9
$TIMEZONE
 70
 -8000
  9
$LIGHTGLYPHDISPLAY
280
     1
  9
$TILEMODELIGHTSYNCH
280
     1
  9
$CMATERIAL
347
38
  9
$SOLIDHIST
280
     0
  9
$SHOWHIST
280
     1
  9
$DWFFRAME
280
     2
  9
$DGNFRAME
280
     0
  9
$REALWORLDSCALE
290
     1
  9
$INTERFERECOLOR
 62
     1
  9
$INTERFEREOBJVS
345
50
  9
$INTERFEREVPVS
346
51
  9
$CSHADOW
280
     0
  9
$SHADOWPLANELOCATION
 40
0.0
  0
ENDSEC
  0
SECTION
  2
CLASSES
  0
CLASS
  1
ACDBDICTIONARYWDFLT
  2
AcDbDictionaryWithDefault
  3
ObjectDBX Classes
 90
        0
 91
        1
280
     0
281
     0
  0
CLASS
  1
DICTIONARYVAR
  2
AcDbDictionaryVar
  3
ObjectDBX Classes
 90
        0
 91
       10
280
     0
281
     0
  0
CLASS
  1
TABLESTYLE
  2
AcDbTableStyle
  3
ObjectDBX Classes
 90
     4095
 91
        1
280
     0
281
     0
  0
CLASS
  1
MATERIAL
  2
AcDbMaterial
  3
ObjectDBX Classes
 90
     1153
 91
        3
280
     0
281
     0
  0
CLASS
  1
VISUALSTYLE
  2
AcDbVisualStyle
  3
ObjectDBX Classes
 90
     4095
 91
        3
280
     0
281
     0
  0
CLASS
  1
SCALE
  2
AcDbScale
  3
ObjectDBX Classes
 90
     1153
 91
       33
280
     0
281
     0
  0
CLASS
  1
MLEADERSTYLE
  2
AcDbMLeaderStyle
  3
ACDB_MLEADERSTYLE_CLASS
 90
     4095
 91
        0
280
     0
281
     0
  0
CLASS
  1
CELLSTYLEMAP
  2
AcDbCellStyleMap
  3
ObjectDBX Classes
 90
     1152
 91
        1
280
     0
281
     0
  0
CLASS
  1
EXACXREFPANELOBJECT
  2
ExAcXREFPanelObject
  3
EXAC_ESW
 90
     1025
 91
        0
280
     1
281
     0
  0
CLASS
  1
NPOCOLLECTION
  2
AcDbImpNonPersistentObjectsCollection
  3
ObjectDBX Classes
 90
     1153
 91
        0
280
     0
281
     0
  0
CLASS
  1
LAYER_INDEX
  2
AcDbLayerIndex
  3
ObjectDBX Classes
 90
        0
 91
        0
280
     0
281
     0
  0
CLASS
  1
SPATIAL_INDEX
  2
AcDbSpatialIndex
  3
ObjectDBX Classes
 90
        0
 91
        0
280
     0
281
     0
  0
CLASS
  1
IDBUFFER
  2
AcDbIdBuffer
  3
ObjectDBX Classes
 90
        0
 91
        0
280
     0
281
     0
  0
CLASS
  1
ACDBSECTIONVIEWSTYLE
  2
AcDbSectionViewStyle
  3
ObjectDBX Classes
 90
     1025
 91
        0
280
     0
281
     0
  0
CLASS
  1
ACDBDETAILVIEWSTYLE
  2
AcDbDetailViewStyle
  3
ObjectDBX Classes
 90
     1025
 91
        0
280
     0
281
     0
  0
CLASS
  1
PLOTSETTINGS
  2
AcDbPlotSettings
  3
ObjectDBX Classes
 90
        0
 91
        0
280
     0
281
     0
  0
CLASS
  1
IMAGEDEF
  2
AcDbRasterImageDef
  3
ISM
 90
        0
 91
        0
280
     0
281
     0
  0
CLASS
  1
SORTENTSTABLE
  2
AcDbSortentsTable
  3
ObjectDBX Classes
 90
        0
 91
        1
280
     0
281
     0
  0
CLASS
  1
IMAGE
  2
AcDbRasterImage
  3
ISM
 90
     2175
 91
        0
280
     0
281
     1
  0
CLASS
  1
IMAGEDEF_REACTOR
  2
AcDbRasterImageDefReactor
  3
ISM
 90
        1
 91
        0
280
     0
281
     0
  0
CLASS
  1
RASTERVARIABLES
  2
AcDbRasterVariables
  3
ISM
 90
        0
 91
        0
280
     0
281
     0
  0
ENDSEC
  0
SECTION
  2
TABLES
  0
TABLE
  2
VPORT
  5
28
330
0
100
AcDbSymbolTable
 70
     1
  0
VPORT
  5
29
330
28
100
AcDbSymbolTableRecord
100
AcDbViewportTableRecord
  2
*Active
 70
     0
 10
0.0
 20
0.0
 11
1.0
 21
1.0
 12
-11067.36598227819
 22
41692.98530825108
 13
0.0
 23
0.0
 14
10.0
 24
10.0
 15
10.0
 25
10.0
 16
0.0
 26
0.0
 36
1.0
 17
0.0
 27
0.0
 37
0.0
 40
513175.4808151733
 41
1.838794233289646
 42
50.0
 43
0.0
 44
0.0
 50
0.0
 51
0.0
 71
     0
 72
  1000
 73
     1
 74
     3
 75
     0
 76
     0
 77
     0
 78
     0
281
     0
 65
     1
110
0.0
120
0.0
130
0.0
111
1.0
121
0.0
131
0.0
112
0.0
122
1.0
132
0.0
 79
     0
146
0.0
348
2A
 60
     3
 61
     5
292
     1
282
     1
141
0.0
142
0.0
 63
   250
421
  3355443
1001
ACAD_NAV_VCDISPLAY
1070
     3
  0
ENDTAB
  0
TABLE
  2
LTYPE
  5
23
330
0
100
AcDbSymbolTable
 70
     1
  0
LTYPE
  5
24
330
23
100
AcDbSymbolTableRecord
100
AcDbLinetypeTableRecord
  2
ByBlock
 70
     0
  3

 72
    65
 73
     0
 40
0.0
  0
LTYPE
  5
25
330
23
100
AcDbSymbolTableRecord
100
AcDbLinetypeTableRecord
  2
ByLayer
 70
     0
  3

 72
    65
 73
     0
 40
0.0
  0
LTYPE
  5
13
330
23
100
AcDbSymbolTableRecord
100
AcDbLinetypeTableRecord
  2
Continuous
 70
     0
  3
Solid line
 72
    65
 73
     0
 40
0.0
  0
ENDTAB
  0
TABLE
  2
LAYER
  5
1D
102
{ACAD_XDICTIONARY
360
1E
102
}
330
0
100
AcDbSymbolTable
 70
     3
  0
LAYER
  5
5
102
{ACAD_XDICTIONARY
360
6
102
}
330
1D
100
AcDbSymbolTableRecord
100
AcDbLayerTableRecord
  2
0
 70
     0
 62
     7
  6
Continuous
370
    -3
390
7
347
A
348
0
  0
LAYER
  5
77
330
1D
100
AcDbSymbolTableRecord
100
AcDbLayerTableRecord
  2
A-DETL-GENF-OTLN
 70
     0
 62
    92
  6
Continuous
370
    18
390
7
347
A
348
0
  0
LAYER
  5
15B
330
1D
100
AcDbSymbolTableRecord
100
AcDbLayerTableRecord
  2
A-____-____-IDEN
 70
     0
 62
   131
  6
Continuous
370
    30
390
7
347
A
348
0
  0
ENDTAB
  0
TABLE
  2
STYLE
  5
20
330
0
100
AcDbSymbolTable
 70
     3
  0
STYLE
  5
21
330
20
100
AcDbSymbolTableRecord
100
AcDbTextStyleTableRecord
  2
Standard
 70
     0
 40
0.0
 41
1.0
 50
0.0
 71
     0
 42
2.5
  3
arial.ttf
  4

1001
ACAD
1000
Arial
1071
       34
  0
STYLE
  5
160
330
20
100
AcDbSymbolTableRecord
100
AcDbTextStyleTableRecord
  2
Arial
 70
     0
 40
12.5
 41
1.0
 50
0.0
 71
     0
 42
0.2
  3
arial.ttf
  4

1001
ACAD
1000
Arial
1071
       34
  0
STYLE
  5
164
330
20
100
AcDbSymbolTableRecord
100
AcDbTextStyleTableRecord
  2
Arial_B
 70
     0
 40
12.5
 41
1.0
 50
0.0
 71
     0
 42
0.2
  3
arialbd.ttf
  4

1001
ACAD
1000
Arial
1071
 33554466
  0
ENDTAB
  0
TABLE
  2
VIEW
  5
26
330
0
100
AcDbSymbolTable
 70
     0
  0
ENDTAB
  0
TABLE
  2
UCS
  5
27
330
0
100
AcDbSymbolTable
 70
     0
  0
ENDTAB
  0
TABLE
  2
APPID
  5
2D
330
0
100
AcDbSymbolTable
 70
     7
  0
APPID
  5
12
330
2D
100
AcDbSymbolTableRecord
100
AcDbRegAppTableRecord
  2
ACAD
 70
     0
  0
APPID
  5
18
330
2D
100
AcDbSymbolTableRecord
100
AcDbRegAppTableRecord
  2
ACAD_PSEXT
 70
     0
  0
APPID
  5
31
330
2D
100
AcDbSymbolTableRecord
100
AcDbRegAppTableRecord
  2
AcadAnnotative
 70
     0
  0
APPID
  5
32
330
2D
100
AcDbSymbolTableRecord
100
AcDbRegAppTableRecord
  2
ACAD_DSTYLE_DIMJAG
 70
     0
  0
APPID
  5
33
330
2D
100
AcDbSymbolTableRecord
100
AcDbRegAppTableRecord
  2
ACAD_DSTYLE_DIMTALN
 70
     0
  0
APPID
  5
2C
330
2D
100
AcDbSymbolTableRecord
100
AcDbRegAppTableRecord
  2
ACAD_NAV_VCDISPLAY
 70
     0
  0
APPID
  5
159
330
2D
100
AcDbSymbolTableRecord
100
AcDbRegAppTableRecord
  2
REVIT
 70
     0
  0
ENDTAB
  0
TABLE
  2
DIMSTYLE
  5
2E
330
0
100
AcDbSymbolTable
 70
     2
100
AcDbDimStyleTable
 71
     2
340
2F
340
30
  0
DIMSTYLE
105
30
330
2E
100
AcDbSymbolTableRecord
100
AcDbDimStyleTableRecord
  2
Annotative
 70
     0
 40
0.0
 41
2.5
 42
0.625
 43
3.75
 44
1.25
 73
     0
 74
     0
 77
     1
 78
     8
140
2.5
141
2.5
143
0.03937007874016
147
0.625
171
     3
172
     1
271
     2
272
     2
274
     3
278
    44
283
     0
284
     8
340
21
1001
AcadAnnotative
1000
AnnotativeData
1002
{
1070
     1
1070
     1
1002
}
1001
ACAD_DSTYLE_DIMJAG
1070
   388
1040
1.5
1001
ACAD_DSTYLE_DIMTALN
1070
   392
1070
     0
  0
DIMSTYLE
105
2F
330
2E
100
AcDbSymbolTableRecord
100
AcDbDimStyleTableRecord
  2
ISO-25
 70
     0
 41
2.5
 42
0.625
 43
3.75
 44
1.25
 73
     0
 74
     0
 77
     1
 78
     8
140
2.5
141
2.5
143
0.03937007874016
147
0.625
171
     3
172
     1
271
     2
272
     2
274
     3
278
    44
283
     0
284
     8
340
21
  0
ENDTAB
  0
TABLE
  2
BLOCK_RECORD
  5
1
330
0
100
AcDbSymbolTable
 70
     2
  0
BLOCK_RECORD
  5
2
102
{ACAD_XDICTIONARY
360
3
102
}
330
1
100
AcDbSymbolTableRecord
100
AcDbBlockTableRecord
  2
*Model_Space
340
15
 70
     0
280
     1
281
     0
  0
BLOCK_RECORD
  5
19
330
1
100
AcDbSymbolTableRecord
100
AcDbBlockTableRecord
  2
*Paper_Space
340
1C
 70
     0
280
     1
281
     0
  0
BLOCK_RECORD
  5
74
330
1
100
AcDbSymbolTableRecord
100
AcDbBlockTableRecord
  2
Viking_Roofspec Revit Components_rvt-1-Drains Side Exit - 80mmø Overflow
340
0
102
{BLKREFS
331
73
102
}
 70
     0
280
     1
281
     0
  0
BLOCK_RECORD
  5
78
330
1
100
AcDbSymbolTableRecord
100
AcDbBlockTableRecord
  2
Viking Roofspec Drain 03 D03 - Drains - Side Exit Deck Overflow - 80mm-793325-Drains Side Exit - 80mmø Overflow
340
0
102
{BLKREFS
331
76
102
}
 70
     0
280
     1
281
     0
  0
ENDTAB
  0
ENDSEC
  0
SECTION
  2
BLOCKS
  0
BLOCK
  5
4
330
2
100
AcDbEntity
  8
0
100
AcDbBlockBegin
  2
*Model_Space
 70
     0
 10
0.0
 20
0.0
 30
0.0
  3
*Model_Space
  1

  0
ENDBLK
  5
14
330
2
100
AcDbEntity
  8
0
100
AcDbBlockEnd
  0
BLOCK
  5
1A
330
19
100
AcDbEntity
 67
     1
  8
0
100
AcDbBlockBegin
  2
*Paper_Space
 70
     0
 10
0.0
 20
0.0
 30
0.0
  3
*Paper_Space
  1

  0
ENDBLK
  5
1B
330
19
100
AcDbEntity
 67
     1
  8
0
100
AcDbBlockEnd
  0
BLOCK
  5
75
330
74
100
AcDbEntity
  8
0
100
AcDbBlockBegin
  2
Viking_Roofspec Revit Components_rvt-1-Drains Side Exit - 80mmø Overflow
 70
     0
 10
0.0
 20
0.0
 30
0.0
  3
Viking_Roofspec Revit Components_rvt-1-Drains Side Exit - 80mmø Overflow
  1

  0
INSERT
  5
76
330
74
100
AcDbEntity
  8
A-DETL-GENF-OTLN
370
    18
100
AcDbBlockReference
  2
Viking Roofspec Drain 03 D03 - Drains - Side Exit Deck Overflow - 80mm-793325-Drains Side Exit - 80mmø Overflow
 10
5161.701097602612
 20
2040.053181763342
 30
0.0
1001
REVIT
1002
{
1070
     2
1000
2705_-2002000
1002
}
  0
LINE
  5
15A
330
74
100
AcDbEntity
  8
A-____-____-IDEN
370
     9
100
AcDbLine
 10
5161.701097602609
 20
2082.375301178699
 30
0.0
 11
5155.487894167013
 21
2097.375301178699
 31
0.0
1001
REVIT
1002
{
1070
     2
1000
413882_-2005022
1002
}
  0
LINE
  5
15C
330
74
100
AcDbEntity
  8
A-____-____-IDEN
370
     9
100
AcDbLine
 10
5161.701097602609
 20
2082.375301178699
 30
0.0
 11
5167.914301038206
 21
2097.375301178699
 31
0.0
1001
REVIT
1002
{
1070
     2
1000
413882_-2005022
1002
}
  0
LINE
  5
15D
330
74
100
AcDbEntity
  8
A-____-____-IDEN
370
     9
100
AcDbLine
 10
5161.701097602609
 20
2248.320215080733
 30
0.0
 11
5190.316706425879
 21
2248.320215080732
 31
0.0
1001
REVIT
1002
{
1070
     2
1000
413882_-2005022
1002
}
  0
LINE
  5
15E
330
74
100
AcDbEntity
  8
A-____-____-IDEN
370
     9
100
AcDbLine
 10
5161.701097602609
 20
2082.375301178699
 30
0.0
 11
5161.701097602609
 21
2248.320215080733
 31
0.0
1001
REVIT
1002
{
1070
     2
1000
413882_-2005022
1002
}
  0
MTEXT
  5
15F
330
74
100
AcDbEntity
  8
A-____-____-IDEN
370
     9
100
AcDbMText
 10
5197.851824648335
 20
2262.495811888907
 30
0.0
 40
12.5
 41
487.0251562499998
 46
0.0
 71
     1
 72
     1
  1
Viking Roofspec 80mmØ side exit clamped overflow
  7
Arial
 73
     2
 44
1.0
1001
REVIT
1002
{
1070
     2
1000
413882_-2005022
1002
}
  0
MTEXT
  5
161
330
74
100
AcDbEntity
  8
A-____-____-IDEN
370
     9
100
AcDbMText
 10
5197.851824648335
 20
2242.652061888907
 30
0.0
 40
12.5
 41
498.6496249999999
 46
0.0
 71
     1
 72
     1
  1
drain SDM055 with 304 S/S domed grate, installed as
  7
Arial
 73
     2
 44
1.0
1001
REVIT
1002
{
1070
     2
1000
413882_-2005022
1002
}
  0
MTEXT
  5
162
330
74
100
AcDbEntity
  8
A-____-____-IDEN
370
     9
100
AcDbMText
 10
5197.851824648335
 20
2222.808311888908
 30
0.0
 40
12.5
 41
289.0083437499999
 46
0.0
 71
     1
 72
     1
  1
per manufacturers instructions.
  7
Arial
 73
     2
 44
1.0
1001
REVIT
1002
{
1070
     2
1000
413882_-2005022
1002
}
  0
MTEXT
  5
163
330
74
100
AcDbEntity
  8
A-____-____-IDEN
370
     9
100
AcDbMText
 10
5063.384829830403
 20
1886.298560603452
 30
0.0
 40
12.5
 41
305.8437812499999
 46
0.0
 71
     1
 72
     1
  1
Viking Roofspec Drain 03 D03:
  7
Arial_B
 73
     2
 44
1.0
1001
REVIT
1002
{
1070
     2
1000
413924_-2005022
1002
}
  0
MTEXT
  5
165
330
74
100
AcDbEntity
  8
A-____-____-IDEN
370
     9
100
AcDbMText
 10
5021.051496497069
 20
1865.793352270119
 30
0.0
 40
12.5
 41
408.0589374999998
 46
0.0
 71
     1
 72
     1
  1
Drains - Side Exit Deck Overflow - 80mm
  7
Arial_B
 73
     2
 44
1.0
1001
REVIT
1002
{
1070
     2
1000
413924_-2005022
1002
}
  0
MTEXT
  5
166
330
74
100
AcDbEntity
  8
A-____-____-IDEN
370
     9
100
AcDbMText
 10
5066.286276880134
 20
1830.030077450997
 30
0.0
 40
12.5
 41
278.5864062499999
 46
0.0
 71
     1
 72
     1
  1
Viking Roofspec 80mmØ side
  7
Arial
 73
     2
 44
1.0
1001
REVIT
1002
{
1070
     2
1000
413924_-2005022
1002
}
  0
MTEXT
  5
167
330
74
100
AcDbEntity
  8
A-____-____-IDEN
370
     9
100
AcDbMText
 10
5076.208151880133
 20
1810.186327450997
 30
0.0
 40
12.5
 41
254.5357812499999
 46
0.0
 71
     1
 72
     1
  1
exit clamped overflow drain
  7
Arial
 73
     2
 44
1.0
1001
REVIT
1002
{
1070
     2
1000
413924_-2005022
1002
}
  0
MTEXT
  5
168
330
74
100
AcDbEntity
  8
A-____-____-IDEN
370
     9
100
AcDbMText
 10
5067.609193546801
 20
1790.342577450997
 30
0.0
 40
12.5
 41
275.3796562499999
 46
0.0
 71
     1
 72
     1
  1
SDM055 with 304 S/S domed
  7
Arial
 73
     2
 44
1.0
1001
REVIT
1002
{
1070
     2
1000
413924_-2005022
1002
}
  0
MTEXT
  5
169
330
74
100
AcDbEntity
  8
A-____-____-IDEN
370
     9
100
AcDbMText
 10
5098.036276880134
 20
1770.498827450997
 30
0.0
 40
12.5
 41
201.62440625
 46
0.0
 71
     1
 72
     1
  1
grate, installed as per
  7
Arial
 73
     2
 44
1.0
1001
REVIT
1002
{
1070
     2
1000
413924_-2005022
1002
}
  0
MTEXT
  5
16A
330
74
100
AcDbEntity
  8
A-____-____-IDEN
370
     9
100
AcDbMText
 10
5077.200339380134
 20
1750.655077450996
 30
0.0
 40
12.5
 41
252.5315624999999
 46
0.0
 71
     1
 72
     1
  1
manufacturers instructions.
  7
Arial
 73
     2
 44
1.0
1001
REVIT
1002
{
1070
     2
1000
413924_-2005022
1002
}
  0
ENDBLK
  5
16B
330
74
100
AcDbEntity
  8
0
100
AcDbBlockEnd
  0
BLOCK
  5
79
330
78
100
AcDbEntity
  8
0
100
AcDbBlockBegin
  2
Viking Roofspec Drain 03 D03 - Drains - Side Exit Deck Overflow - 80mm-793325-Drains Side Exit - 80mmø Overflow
 70
     0
 10
0.0
 20
0.0
 30
0.0
  3
Viking Roofspec Drain 03 D03 - Drains - Side Exit Deck Overflow - 80mm-793325-Drains Side Exit - 80mmø Overflow
  1

  0
LINE
  5
7A
330
78
100
AcDbEntity
  8
A-DETL-GENF-OTLN
 62
     7
100
AcDbLine
 10
48.97881151384575
 20
42.34497290060055
 30
0.0
 11
42.79918129594913
 21
42.34497290060057
 31
0.0
  0
LINE
  5
7B
330
78
100
AcDbEntity
  8
A-DETL-GENF-OTLN
 62
     7
100
AcDbLine
 10
39.04409483960639
 20
42.34497290060058
 30
0.0
 11
31.73497407242098
 21
42.34497290060061
 31
0.0
  0
LINE
  5
7C
330
78
100
AcDbEntity
  8
A-DETL-GENF-OTLN
 62
     7
100
AcDbLine
 10
26.52460304701942
 20
42.34497290060063
 30
0.0
 11
17.92214761427597
 21
42.34497290060065
 31
0.0
  0
LINE
  5
7D
330
78
100
AcDbEntity
  8
A-DETL-GENF-OTLN
 62
     7
100
AcDbLine
 10
12.04109444304745
 20
42.34497290060067
 30
0.0
 11
3.318833215491714
 21
42.3449729006007
 31
0.0
  0
LINE
  5
7E
330
78
100
AcDbEntity
  8
A-DETL-GENF-OTLN
 62
     7
100
AcDbLine
 10
-3.318833215328658
 20
42.34497290060072
 30
0.0
 11
-12.04109444288429
 21
42.34497290060075
 31
0.0
  0
LINE
  5
7F
330
78
100
AcDbEntity
  8
A-DETL-GENF-OTLN
 62
     7
100
AcDbLine
 10
-17.92214761411281
 20
42.34497290060077
 30
0.0
 11
-26.52460304685616
 21
42.3449729006008
 31
0.0
  0
LINE
  5
80
330
78
100
AcDbEntity
  8
A-DETL-GENF-OTLN
 62
     7
100
AcDbLine
 10
-31.73497407225772
 20
42.34497290060081
 30
0.0
 11
-39.04409483944292
 21
42.34497290060083
 31
0.0
  0
LINE
  5
81
330
78
100
AcDbEntity
  8
A-DETL-GENF-OTLN
 62
     7
100
AcDbLine
 10
-42.79918129578556
 20
42.34497290060086
 30
0.0
 11
-48.97881151368206
 21
42.34497290060087
 31
0.0
  0
LINE
  5
82
330
78
100
AcDbEntity
  8
A-DETL-GENF-OTLN
 62
     7
100
AcDbLine
 10
-75.03915191027719
 20
3.063170033149617
 30
0.0
 11
-75.08261898046445
 21
3.063170033149617
 31
0.0
  0
LINE
  5
83
330
78
100
AcDbEntity
  8
A-DETL-GENF-OTLN
 62
     7
100
AcDbLine
 10
-81.29038006194365
 20
0.0
 30
0.0
 11
-90.14152577097009
 21
0.0
 31
0.0
  0
LINE
  5
84
330
78
100
AcDbEntity
  8
A-DETL-GENF-OTLN
 62
     7
100
AcDbLine
 10
125.2141124613642
 20
-98.03554101961157
 30
0.0
 11
126.9907051524902
 21
-30.18902606904717
 31
0.0
  0
LINE
  5
85
330
78
100
AcDbEntity
  8
A-DETL-GENF-OTLN
 62
     7
100
AcDbLine
 10
90.14152577097009
 20
0.0
 30
0.0
 11
81.29038006194365
 21
0.0
 31
0.0
  0
LINE
  5
86
330
78
100
AcDbEntity
  8
A-DETL-GENF-OTLN
 62
     7
100
AcDbLine
 10
75.11958248199471
 20
3.063170033149617
 30
0.0
 11
75.03915191035869
 21
3.063170033149617
 31
0.0
  0
LINE
  5
87
330
78
100
AcDbEntity
  8
A-DETL-GENF-OTLN
 62
     7
100
AcDbLine
 10
-59.14731350276948
 20
-6.919498543720677
 30
0.0
 11
-61.29866938675604
 21
-6.919498543720677
 31
0.0
  0
LINE
  5
88
330
78
100
AcDbEntity
  8
A-DETL-GENF-OTLN
 62
     7
100
AcDbLine
 10
-61.29866938675604
 20
-6.919498543720677
 30
0.0
 11
-61.29866938675604
 21
-16.4714036229998
 31
0.0
  0
LINE
  5
89
330
78
100
AcDbEntity
  8
A-DETL-GENF-OTLN
 62
     7
100
AcDbLine
 10
-55.29974115051226
 20
-16.4714036229998
 30
0.0
 11
-55.29974115051226
 21
-6.919498543720677
 31
0.0
  0
ARC
  5
8A
330
78
100
AcDbEntity
  8
A-DETL-GENF-OTLN
 62
     7
100
AcDbCircle
 10
-56.81634905736052
 20
-35.82448043860438
 30
0.0
 40
4.482320329395598
100
AcDbArc
 50
179.9999999999999
 51
213.9000788040561
  0
LINE
  5
8B
330
78
100
AcDbEntity
  8
A-DETL-GENF-OTLN
 62
     7
100
AcDbLine
 10
-60.5367265580231
 20
-38.32447779617833
 30
0.0
 11
-47.79920529722299
 21
-38.32447779617837
 31
0.0
  0
ARC
  5
8C
330
78
100
AcDbEntity
  8
A-DETL-GENF-OTLN
 62
     7
100
AcDbCircle
 10
-47.79920529722298
 20
-35.8244777961784
 30
0.0
 40
2.499999999999988
100
AcDbArc
 50
180.0593201707213
 51
269.9999999999999
  0
LINE
  5
8D
330
78
100
AcDbEntity
  8
A-DETL-GENF-OTLN
 62
     7
100
AcDbLine
 10
-50.29920395733189
 20
-35.8270661264458
 30
0.0
 11
-50.29920395733189
 21
-16.48140230216089
 31
0.0
  0
LINE
  5
8E
330
78
100
AcDbEntity
  8
A-DETL-GENF-OTLN
 62
     7
100
AcDbLine
 10
-50.29920395733189
 20
-16.48140230216089
 30
0.0
 11
-66.29920657993628
 21
-16.48140230216089
 31
0.0
  0
LINE
  5
8F
330
78
100
AcDbEntity
  8
A-DETL-GENF-OTLN
 62
     7
100
AcDbLine
 10
-66.29920657993628
 20
-16.48140230216089
 30
0.0
 11
-66.29920657993628
 21
-19.00862620425936
 31
0.0
  0
ARC
  5
90
330
78
100
AcDbEntity
  8
A-DETL-GENF-OTLN
 62
     7
100
AcDbCircle
 10
-68.66037601235851
 20
-25.98140207566333
 30
0.0
 40
7.36170662560242
100
AcDbArc
 50
0.0000000000003318
 51
71.29251724752292
  0
LINE
  5
91
330
78
100
AcDbEntity
  8
A-DETL-GENF-OTLN
 62
     7
100
AcDbLine
 10
-61.29866938675611
 20
-25.98140207566333
 30
0.0
 11
-61.29866938675611
 21
-35.82448043860437
 31
0.0
  0
ARC
  5
92
330
78
100
AcDbEntity
  8
A-DETL-GENF-OTLN
 62
     7
100
AcDbCircle
 10
-10.27360660368167
 20
-35.97015483290328
 30
0.0
 40
2.577127609600452
100
AcDbArc
 50
293.9999999999945
 51
0.0000000000001781
  0
LINE
  5
93
330
78
100
AcDbEntity
  8
A-DETL-GENF-OTLN
 62
     7
100
AcDbLine
 10
-9.225394370975054
 20
-38.3244780544192
 30
0.0
 11
9.141704991503001
 21
-38.32447805441927
 31
0.0
  0
ARC
  5
94
330
78
100
AcDbEntity
  8
A-DETL-GENF-OTLN
 62
     7
100
AcDbCircle
 10
10.1899172242095
 20
-35.97015483290327
 30
0.0
 40
2.577127609600469
100
AcDbArc
 50
180.0000000000001
 51
246.0000000000082
  0
LINE
  5
95
330
78
100
AcDbEntity
  8
A-DETL-GENF-OTLN
 62
     7
100
AcDbLine
 10
7.612789614609085
 20
-35.97015483290329
 30
0.0
 11
7.612789614609085
 21
-25.98139920271886
 31
0.0
  0
LINE
  5
96
330
78
100
AcDbEntity
  8
A-DETL-GENF-OTLN
 62
     7
100
AcDbLine
 10
7.612789614609083
 20
-25.98139920271908
 30
0.0
 11
7.958155690244022
 21
-21.04478606022892
 31
0.0
  0
LINE
  5
97
330
78
100
AcDbEntity
  8
A-DETL-GENF-OTLN
 62
     7
100
AcDbLine
 10
7.958155690244022
 20
-21.04478606022892
 30
0.0
 11
7.958155690244022
 21
-16.47140362299977
 31
0.0
  0
LINE
  5
98
330
78
100
AcDbEntity
  8
A-DETL-GENF-OTLN
 62
     7
100
AcDbLine
 10
7.958155690244022
 20
-16.47140362299977
 30
0.0
 11
2.957619428385826
 21
-16.47140362299977
 31
0.0
  0
LINE
  5
99
330
78
100
AcDbEntity
  8
A-DETL-GENF-OTLN
 62
     7
100
AcDbLine
 10
-3.041308807858116
 20
-16.47140362299977
 30
0.0
 11
-8.041845069716206
 21
-16.47140362299977
 31
0.0
  0
LINE
  5
9A
330
78
100
AcDbEntity
  8
A-DETL-GENF-OTLN
 62
     7
100
AcDbLine
 10
-8.041845069716206
 20
-16.47140362299977
 30
0.0
 11
-8.041845069716206
 21
-21.04478606022892
 31
0.0
  0
LINE
  5
9B
330
78
100
AcDbEntity
  8
A-DETL-GENF-OTLN
 62
     7
100
AcDbLine
 10
-8.041845069716206
 20
-21.04478606022892
 30
0.0
 11
-7.696478994081269
 21
-25.98139920271908
 31
0.0
  0
LINE
  5
9C
330
78
100
AcDbEntity
  8
A-DETL-GENF-OTLN
 62
     7
100
AcDbLine
 10
-7.69647899408127
 20
-25.98139920271886
 30
0.0
 11
-7.69647899408127
 21
-35.97015483290329
 31
0.0
  0
LINE
  5
9D
330
78
100
AcDbEntity
  8
A-DETL-GENF-OTLN
 62
     7
100
AcDbLine
 10
2.957619428385666
 20
-6.919498543720677
 30
0.0
 11
-3.041308807858118
 21
-6.919498543720677
 31
0.0
  0
LINE
  5
9E
330
78
100
AcDbEntity
  8
A-DETL-GENF-OTLN
 62
     7
100
AcDbLine
 10
-3.041308807858118
 20
-6.919498543720677
 30
0.0
 11
-3.041308807858118
 21
-16.47140362299997
 31
0.0
  0
LINE
  5
9F
330
78
100
AcDbEntity
  8
A-DETL-GENF-OTLN
 62
     7
100
AcDbLine
 10
-3.041308807858118
 20
-16.47140362299997
 30
0.0
 11
2.957619428385666
 21
-16.47140362299997
 31
0.0
  0
LINE
  5
A0
330
78
100
AcDbEntity
  8
A-DETL-GENF-OTLN
 62
     7
100
AcDbLine
 10
2.957619428385666
 20
-16.47140362299997
 30
0.0
 11
2.957619428385666
 21
-6.919498543720677
 31
0.0
  0
LINE
  5
A1
330
78
100
AcDbEntity
  8
A-DETL-GENF-OTLN
 62
     7
100
AcDbLine
 10
61.29866938675611
 20
-35.82448043860437
 30
0.0
 11
61.29866938675611
 21
-25.98140207566333
 31
0.0
  0
ARC
  5
A2
330
78
100
AcDbEntity
  8
A-DETL-GENF-OTLN
 62
     7
100
AcDbCircle
 10
68.66037601235852
 20
-25.98140207566333
 30
0.0
 40
7.361706625602422
100
AcDbArc
 50
108.7074827524775
 51
180.0
  0
LINE
  5
A3
330
78
100
AcDbEntity
  8
A-DETL-GENF-OTLN
 62
     7
100
AcDbLine
 10
66.29920657993628
 20
-19.00862620425936
 30
0.0
 11
66.29920657993628
 21
-16.48140230216089
 31
0.0
  0
LINE
  5
A4
330
78
100
AcDbEntity
  8
A-DETL-GENF-OTLN
 62
     7
100
AcDbLine
 10
66.29920657993628
 20
-16.48140230216089
 30
0.0
 11
61.29866938675604
 21
-16.48140230216089
 31
0.0
  0
LINE
  5
A5
330
78
100
AcDbEntity
  8
A-DETL-GENF-OTLN
 62
     7
100
AcDbLine
 10
55.29974115051222
 20
-16.48140230216089
 30
0.0
 11
50.29920395733189
 21
-16.48140230216089
 31
0.0
  0
LINE
  5
A6
330
78
100
AcDbEntity
  8
A-DETL-GENF-OTLN
 62
     7
100
AcDbLine
 10
50.29920395733189
 20
-16.48140230216089
 30
0.0
 11
50.29920395733189
 21
-35.8270661264458
 31
0.0
  0
ARC
  5
A7
330
78
100
AcDbEntity
  8
A-DETL-GENF-OTLN
 62
     7
100
AcDbCircle
 10
47.79920529722298
 20
-35.8244777961784
 30
0.0
 40
2.499999999999981
100
AcDbArc
 50
269.9999999999998
 51
359.9406798292787
  0
LINE
  5
A8
330
78
100
AcDbEntity
  8
A-DETL-GENF-OTLN
 62
     7
100
AcDbLine
 10
47.79920529722299
 20
-38.32447779617837
 30
0.0
 11
60.5367265580231
 21
-38.32447779617833
 31
0.0
  0
ARC
  5
A9
330
78
100
AcDbEntity
  8
A-DETL-GENF-OTLN
 62
     7
100
AcDbCircle
 10
56.81634905736049
 20
-35.82448043860437
 30
0.0
 40
4.482320329395626
100
AcDbArc
 50
326.0999211959429
 51
359.9999999999992
  0
ARC
  5
AA
330
78
100
AcDbEntity
  8
A-DETL-GENF-OTLN
 62
     7
100
AcDbCircle
 10
13.07101085427879
 20
-61.08876991306661
 30
0.0
 40
31.94854621419927
100
AcDbArc
 50
270.854759493707
 51
329.0883608581483
  0
ARC
  5
AB
330
78
100
AcDbEntity
  8
A-DETL-GENF-OTLN
 62
     7
100
AcDbCircle
 10
-31.67545814930514
 20
-34.29621343990517
 30
0.0
 40
84.1030049944057
100
AcDbArc
 50
329.0883608581491
 51
346.9116391418564
  0
ARC
  5
AC
330
78
100
AcDbEntity
  8
A-DETL-GENF-OTLN
 62
     7
100
AcDbCircle
 10
65.63437492023138
 20
-53.34162890563029
 30
0.0
 40
15.39165682746592
100
AcDbArc
 50
90.00000000000076
 51
180.0000000000012
  0
ARC
  5
AD
330
78
100
AcDbEntity
  8
A-DETL-GENF-OTLN
 62
     7
100
AcDbCircle
 10
65.63437492023125
 20
-32.94997207816422
 30
0.0
 40
5.000000000000126
100
AcDbArc
 50
269.9999999999983
 51
329.9999999999984
  0
LINE
  5
AE
330
78
100
AcDbEntity
  8
A-DETL-GENF-OTLN
 62
     7
100
AcDbLine
 10
69.9645019391535
 20
-35.44997207816439
 30
0.0
 11
72.14632269660933
 21
-31.1460708456043
 31
0.0
  0
LINE
  5
AF
330
78
100
AcDbEntity
  8
A-DETL-GENF-OTLN
 62
     7
100
AcDbLine
 10
-72.6606225528717
 20
-16.41862227872298
 30
0.0
 11
55.29974115051223
 21
-16.41862227872339
 31
0.0
  0
LINE
  5
B0
330
78
100
AcDbEntity
  8
A-DETL-GENF-OTLN
 62
     7
100
AcDbLine
 10
61.29866938675608
 20
-16.41862227872341
 30
0.0
 11
72.66062255287121
 21
-16.41862227872345
 31
0.0
  0
LINE
  5
B1
330
78
100
AcDbEntity
  8
A-DETL-GENF-OTLN
 62
     7
100
AcDbLine
 10
-51.41074437950147
 20
-6.919498543720693
 30
0.0
 11
51.41074437950146
 21
-6.919498543721025
 31
0.0
  0
LINE
  5
B2
330
78
100
AcDbEntity
  8
A-DETL-GENF-OTLN
 62
     7
100
AcDbLine
 10
-55.40381255401598
 20
-1.429030733470426
 30
0.0
 11
-55.27883991935802
 21
-1.429030733470427
 31
0.0
  0
LINE
  5
B3
330
78
100
AcDbEntity
  8
A-DETL-GENF-OTLN
 62
     7
100
AcDbLine
 10
55.27883991952103
 20
-1.429030733470784
 30
0.0
 11
55.40381255401598
 21
-1.429030733470784
 31
0.0
  0
LINE
  5
B4
330
78
100
AcDbEntity
  8
A-DETL-GENF-OTLN
 62
     7
100
AcDbLine
 10
55.29974115051226
 20
-6.919498543720677
 30
0.0
 11
55.29974115051226
 21
-16.4714036229998
 31
0.0
  0
LINE
  5
B5
330
78
100
AcDbEntity
  8
A-DETL-GENF-OTLN
 62
     7
100
AcDbLine
 10
55.29974115051226
 20
-16.4714036229998
 30
0.0
 11
61.29866938675604
 21
-16.4714036229998
 31
0.0
  0
LINE
  5
B6
330
78
100
AcDbEntity
  8
A-DETL-GENF-OTLN
 62
     7
100
AcDbLine
 10
61.29866938675604
 20
-16.4714036229998
 30
0.0
 11
61.29866938675604
 21
-6.919498543720677
 31
0.0
  0
LINE
  5
B7
330
78
100
AcDbEntity
  8
A-DETL-GENF-OTLN
 62
     7
100
AcDbLine
 10
61.29866938675604
 20
-6.919498543720677
 30
0.0
 11
59.14731350276948
 21
-6.919498543720677
 31
0.0
  0
HATCH
  5
B8
330
78
100
AcDbEntity
  8
A-DETL-GENF-OTLN
100
AcDbHatch
 10
0.0
 20
0.0
 30
0.0
210
0.0
220
0.0
230
1.0
  2
FP_1
 70
     0
 71
     0
 91
        9
 92
        1
 93
       48
 72
     1
 10
63.9744293749055
 20
-1.429030733467785
 11
75.03915191044424
 21
-1.429030733467785
 72
     1
 10
75.03915191044424
 20
-1.429030733467785
 11
75.03915191044424
 21
3.781648189575619
 72
     1
 10
75.03915191044424
 20
3.781648189575619
 11
83.09426549956063
 21
3.781648189575619
 72
     1
 10
83.09426549956063
 20
3.781648189575619
 11
86.9681027484261
 21
20.59601459611753
 72
     1
 10
86.9681027484261
 20
20.59601459611753
 11
87.02581060066298
 21
21.17986570345533
 72
     1
 10
87.02581060066298
 20
21.17986570345533
 11
86.93389491121246
 21
21.75931701097154
 72
     1
 10
86.93389491121246
 20
21.75931701097154
 11
86.69833894844385
 21
22.29664903137752
 72
     1
 10
86.69833894844385
 20
22.29664903137752
 11
86.33447627020457
 21
22.75688403996966
 72
     1
 10
86.33447627020457
 20
22.75688403996966
 11
85.86599258310769
 21
23.11006295592239
 72
     1
 10
85.86599258310769
 20
23.11006295592239
 11
85.18768148828639
 21
23.35153186484973
 72
     1
 10
85.18768148828639
 20
23.35153186484973
 11
84.74197148135401
 21
23.41175691897809
 72
     1
 10
84.74197148135401
 20
23.41175691897809
 11
84.15960242288113
 21
23.34063314318616
 72
     1
 10
84.15960242288113
 20
23.34063314318616
 11
83.61418616058751
 21
23.12445402168075
 72
     1
 10
83.61418616058751
 20
23.12445402168075
 11
83.14122666435903
 21
22.77729177333474
 72
     1
 10
83.14122666435903
 20
22.77729177333474
 11
82.77151131783718
 21
22.32174498726811
 72
     1
 10
82.77151131783718
 20
22.32174498726811
 11
82.52910680813448
 21
21.78746756362427
 72
     1
 10
82.52910680813448
 20
21.78746756362427
 11
79.21948178172101
 21
10.98115659176035
 72
     1
 10
79.21948178172101
 20
10.98115659176035
 11
78.71032538123362
 21
9.835116367652641
 72
     1
 10
78.71032538123362
 20
9.835116367652641
 11
77.92843715194734
 21
8.854657682988376
 72
     1
 10
77.92843715194734
 20
8.854657682988376
 11
76.92442989398682
 21
8.103247101886067
 72
     1
 10
76.92442989398682
 20
8.103247101886067
 11
75.76329450600923
 21
7.629524560500932
 72
     1
 10
75.76329450600923
 20
7.629524560500932
 11
74.52019302666847
 21
7.464154830859878
 72
     1
 10
74.52019302666847
 20
7.464154830859878
 11
69.92384334840562
 21
7.476617642583538
 72
     1
 10
69.92384334840562
 20
7.476617642583538
 11
69.5210740633138
 21
7.525499538836831
 72
     1
 10
69.5210740633138
 20
7.525499538836831
 11
69.06392268995181
 21
7.702352284644156
 72
     1
 10
69.06392268995181
 20
7.702352284644156
 11
68.66426895607897
 21
7.986150038102158
 72
     1
 10
68.66426895607897
 20
7.986150038102158
 11
68.34663660866012
 21
8.359478263313629
 72
     1
 10
68.34663660866012
 20
8.359478263313629
 11
68.13051635841714
 21
8.799428611990913
 72
     1
 10
68.13051635841714
 20
8.799428611990913
 11
68.02916988135073
 21
9.279004636676937
 72
     1
 10
68.02916988135073
 20
9.279004636676937
 11
65.83290735057413
 21
34.61771701031683
 72
     1
 10
65.83290735057413
 20
34.61771701031683
 11
65.15429452220103
 21
36.71435048493299
 72
     1
 10
65.15429452220103
 20
36.71435048493299
 11
64.01648342294929
 21
38.60161654994174
 72
     1
 10
64.01648342294929
 20
38.60161654994174
 11
62.39454071991895
 21
40.23467393682706
 72
     1
 10
62.39454071991895
 20
40.23467393682706
 11
60.62291411785113
 21
41.36830026843322
 72
     1
 10
60.62291411785113
 20
41.36830026843322
 11
58.54513482135082
 21
42.10261661221726
 72
     1
 10
58.54513482135082
 20
42.10261661221726
 11
56.35478080266036
 21
42.34497290060313
 72
     1
 10
56.35478080266036
 20
42.34497290060313
 11
48.97881151384969
 21
42.34497290060327
 72
     1
 10
48.97881151384969
 20
42.34497290060327
 11
48.97881151384969
 21
37.35009367412546
 72
     1
 10
48.97881151384969
 20
37.35009367412546
 11
56.78041412440897
 21
37.3500936741254
 72
     1
 10
56.78041412440897
 20
37.3500936741254
 11
57.9544736858484
 21
36.9919794980966
 72
     1
 10
57.9544736858484
 20
36.9919794980966
 11
59.01140606784063
 21
36.36783563905732
 72
     1
 10
59.01140606784063
 20
36.36783563905732
 11
59.89194061749115
 21
35.51266283561226
 72
     1
 10
59.89194061749115
 20
35.51266283561226
 11
60.54669871934361
 21
34.47441746724376
 72
     1
 10
60.54669871934361
 20
34.47441746724376
 11
60.93896284931995
 21
33.3113222565175
 72
     1
 10
60.93896284931995
 20
33.3113222565175
 11
61.32673690831054
 21
30.02383030419624
 72
     1
 10
61.32673690831054
 20
30.02383030419624
 11
61.53914084052378
 21
26.71165660272091
 72
     1
 10
61.53914084052378
 20
26.71165660272091
 11
62.29135863883725
 21
18.01949320105413
 72
     1
 10
62.29135863883725
 20
18.01949320105413
 11
63.9744293749055
 21
-1.429030733467783
 97
        0
 92
        1
 93
       50
 72
     1
 10
-63.99354392471629
 20
-1.429030733467785
 11
-63.97442937473481
 21
-1.429030733467785
 72
     1
 10
-63.97442937473481
 20
-1.429030733467785
 11
-61.5391408403531
 21
26.71165660272065
 72
     1
 10
-61.5391408403531
 20
26.71165660272064
 11
-61.32673690813958
 21
30.02383030419665
 72
     1
 10
-61.32673690813958
 20
30.02383030419665
 11
-60.93896284914926
 21
33.3113222565175
 72
     1
 10
-60.93896284914926
 20
33.3113222565175
 11
-60.54669871917266
 21
34.47441746724409
 72
     1
 10
-60.54669871917266
 20
34.47441746724409
 11
-59.89194061731993
 21
35.51266283561293
 72
     1
 10
-59.89194061731993
 20
35.51266283561293
 11
-59.01140606766887
 21
36.36783563905807
 72
     1
 10
-59.01140606766887
 20
36.36783563905807
 11
-57.95447368567622
 21
36.99197949809735
 72
     1
 10
-57.95447368567622
 20
36.99197949809735
 11
-56.78041412423613
 21
37.3500936741258
 72
     1
 10
-56.78041412423613
 20
37.3500936741258
 11
-48.97881151367833
 21
37.3500936741258
 72
     1
 10
-48.97881151367833
 20
37.3500936741258
 11
-48.97881151367833
 21
42.34497290060354
 72
     1
 10
-48.97881151367833
 20
42.34497290060354
 11
-56.35478080257102
 21
42.34497290060354
 72
     1
 10
-56.35478080257102
 20
42.34497290060354
 11
-58.54513482124809
 21
42.10261661220163
 72
     1
 10
-58.54513482124809
 20
42.10261661220163
 11
-60.62291411773255
 21
41.36830026840763
 72
     1
 10
-60.62291411773255
 20
41.36830026840763
 11
-62.47914761767785
 21
40.18053577519196
 72
     1
 10
-62.47914761767785
 20
40.18053577519196
 11
-64.01648342279985
 21
38.60161654991406
 72
     1
 10
-64.01648342279985
 20
38.60161654991406
 11
-65.15429452203981
 21
36.71435048491181
 72
     1
 10
-65.15429452203981
 20
36.71435048491181
 11
-65.8329073504056
 21
34.61771701030539
 72
     1
 10
-65.8329073504056
 20
34.61771701030539
 11
-67.45069991052034
 21
15.9308771777079
 72
     1
 10
-67.45069991052034
 20
15.93087717770791
 11
-68.02916988117991
 21
9.279004636675853
 72
     1
 10
-68.02916988117991
 20
9.279004636675853
 11
-68.13051635824631
 21
8.799428611990913
 72
     1
 10
-68.13051635824631
 20
8.799428611990913
 11
-68.34663660848916
 21
8.359478263313629
 72
     1
 10
-68.34663660848916
 20
8.359478263313629
 11
-68.66426895590816
 21
7.986150038102158
 72
     1
 10
-68.66426895590816
 20
7.986150038102158
 11
-69.06392268978099
 21
7.702352284644156
 72
     1
 10
-69.06392268978099
 20
7.702352284644156
 11
-69.52107406314297
 21
7.525499538836831
 72
     1
 10
-69.52107406314297
 20
7.525499538836831
 11
-70.00767113088567
 21
7.466443924958172
 72
     1
 10
-70.00767113088567
 20
7.466443924958172
 11
-74.52019302649387
 21
7.464154830859878
 72
     1
 10
-74.52019302649387
 20
7.464154830859878
 11
-75.76329450583909
 21
7.629524560501136
 72
     1
 10
-75.76329450583909
 20
7.629524560501136
 11
-76.92442989381722
 21
8.103247101886811
 72
     1
 10
-76.92442989381722
 20
8.103247101886811
 11
-77.92843715177816
 21
8.854657682989866
 72
     1
 10
-77.92843715177816
 20
8.854657682989866
 11
-78.71032538106442
 21
9.835116367655077
 72
     1
 10
-78.71032538106442
 20
9.835116367655077
 11
-79.2194817815514
 21
10.98115659176414
 72
     1
 10
-79.2194817815514
 20
10.98115659176414
 11
-82.52910680796111
 21
21.78746756361621
 72
     1
 10
-82.52910680796111
 20
21.78746756361621
 11
-82.77151131766622
 21
22.32174498726811
 72
     1
 10
-82.77151131766622
 20
22.32174498726811
 11
-83.14122666418807
 21
22.77729177333474
 72
     1
 10
-83.14122666418807
 20
22.77729177333474
 11
-83.61418616041655
 21
23.12445402168075
 72
     1
 10
-83.61418616041655
 20
23.12445402168075
 11
-84.1596024227103
 21
23.34063314318616
 72
     1
 10
-84.1596024227103
 20
23.34063314318616
 11
-84.74197148118305
 21
23.41175691897809
 72
     1
 10
-84.74197148118305
 20
23.41175691897809
 11
-85.32338391702209
 21
23.33319553405358
 72
     1
 10
-85.32338391702209
 20
23.33319553405358
 11
-85.86599258293688
 21
23.11006295592239
 72
     1
 10
-85.86599258293688
 20
23.11006295592239
 11
-86.33447627003361
 21
22.75688403996966
 72
     1
 10
-86.33447627003361
 20
22.75688403996966
 11
-86.69833894827318
 21
22.29664903137752
 72
     1
 10
-86.69833894827318
 20
22.29664903137752
 11
-86.93389491104163
 21
21.75931701097154
 72
     1
 10
-86.93389491104163
 20
21.75931701097154
 11
-87.02581060049215
 21
21.17986570345533
 72
     1
 10
-87.02581060049215
 20
21.17986570345533
 11
-86.96810273106789
 21
20.59601460007737
 72
     1
 10
-86.96810273106789
 20
20.59601460007737
 11
-83.09426549938981
 21
3.781648189575619
 72
     1
 10
-83.09426549938981
 20
3.781648189575619
 11
-75.03915191027329
 21
3.781648189575619
 72
     1
 10
-75.03915191027329
 20
3.781648189575619
 11
-75.03915191027329
 21
-1.429030733467785
 72
     1
 10
-75.03915191027329
 20
-1.429030733467785
 11
-64.02955601271878
 21
-1.429030733467785
 72
     1
 10
-64.02955601271878
 20
-1.429030733467785
 11
-63.99354392471629
 21
-1.429030733467785
 97
        0
 92
        1
 93
        4
 72
     1
 10
26.52460304702326
 20
37.35009367412546
 11
31.73497407242483
 21
37.35009367412546
 72
     1
 10
31.73497407242483
 20
37.35009367412546
 11
31.73497407242483
 21
42.34497290060327
 72
     1
 10
31.73497407242483
 20
42.34497290060327
 11
26.52460304702326
 21
42.34497290060327
 72
     1
 10
26.52460304702326
 20
42.34497290060327
 11
26.52460304702326
 21
37.35009367412546
 97
        0
 92
        1
 93
        4
 72
     1
 10
42.79918129595302
 20
37.35009367412546
 11
42.79918129595302
 21
42.34497290060327
 72
     1
 10
42.79918129595302
 20
42.34497290060327
 11
39.04409483961035
 21
42.34497290060327
 72
     1
 10
39.04409483961035
 20
42.34497290060327
 11
39.04409483961035
 21
37.35009367412546
 72
     1
 10
39.04409483961035
 20
37.35009367412546
 11
42.79918129595302
 21
37.35009367412546
 97
        0
 92
        1
 93
        4
 72
     1
 10
-12.0410944428805
 20
37.3500936741256
 11
-12.0410944428805
 21
42.34497290060335
 72
     1
 10
-12.0410944428805
 20
42.34497290060335
 11
-17.922147614109
 21
42.34497290060348
 72
     1
 10
-17.922147614109
 20
42.34497290060348
 11
-17.922147614109
 21
37.35009367412573
 72
     1
 10
-17.922147614109
 20
37.35009367412573
 11
-12.0410944428805
 21
37.3500936741256
 97
        0
 92
        1
 93
        4
 72
     1
 10
-3.318833215324783
 20
37.3500936741256
 11
3.318833215495605
 21
37.3500936741256
 72
     1
 10
3.318833215495605
 20
37.3500936741256
 11
3.318833215495605
 21
42.34497290060335
 72
     1
 10
3.318833215495605
 20
42.34497290060335
 11
-3.318833215324783
 21
42.34497290060335
 72
     1
 10
-3.318833215324783
 20
42.34497290060335
 11
-3.318833215324783
 21
37.3500936741256
 97
        0
 92
        1
 93
        4
 72
     1
 10
17.92214761427982
 20
37.3500936741256
 11
17.92214761427982
 21
42.34497290060335
 72
     1
 10
17.92214761427982
 20
42.34497290060335
 11
12.04109444305132
 21
42.34497290060335
 72
     1
 10
12.04109444305132
 20
42.34497290060335
 11
12.04109444305132
 21
37.3500936741256
 72
     1
 10
12.04109444305132
 20
37.3500936741256
 11
17.92214761427982
 21
37.3500936741256
 97
        0
 92
        1
 93
        4
 72
     1
 10
-26.5246030468523
 20
37.35009367412573
 11
-26.5246030468523
 21
42.34497290060348
 72
     1
 10
-26.5246030468523
 20
42.34497290060348
 11
-31.73497407225387
 21
42.34497290060348
 72
     1
 10
-31.73497407225387
 20
42.34497290060348
 11
-31.73497407225387
 21
37.35009367412573
 72
     1
 10
-31.73497407225387
 20
37.35009367412573
 11
-26.5246030468523
 21
37.35009367412573
 97
        0
 92
        1
 93
        5
 72
     1
 10
-42.7991812957818
 20
37.35009367412573
 11
-39.04409483943913
 21
37.35009367412573
 72
     1
 10
-39.04409483943913
 20
37.35009367412573
 11
-39.04409483943913
 21
42.34497290060348
 72
     1
 10
-39.04409483943913
 20
42.34497290060348
 11
-42.7991812957818
 21
42.34497290060348
 72
     1
 10
-42.7991812957818
 20
42.34497290060348
 11
-42.7991812957818
 21
40.23467393682706
 72
     1
 10
-42.7991812957818
 20
40.23467393682706
 11
-42.7991812957818
 21
37.35009367412573
 97
        0
 75
     0
 76
     2
 52
0.0
 41
1.0
 77
     0
 78
     1
 53
45.0
 43
-3161.701
 44
-2040.053
 45
-3.535533905932737
 46
3.535533905932737
 79
     0
 98
        1
 10
0.0
 20
0.0
  0
LINE
  5
B9
330
78
100
AcDbEntity
  8
A-DETL-GENF-OTLN
 62
     7
100
AcDbLine
 10
-83.09426549939358
 20
3.781648189573005
 30
0.0
 11
-75.03915191027719
 21
3.781648189572979
 31
0.0
  0
LINE
  5
BA
330
78
100
AcDbEntity
  8
A-DETL-GENF-OTLN
 62
     7
100
AcDbLine
 10
-75.03915191027719
 20
3.781648189572979
 30
0.0
 11
-75.03915191027719
 21
-1.429030733470331
 31
0.0
  0
LINE
  5
BB
330
78
100
AcDbEntity
  8
A-DETL-GENF-OTLN
 62
     7
100
AcDbLine
 10
-63.97442937473852
 20
-1.429030733470366
 30
0.0
 11
-61.53914084035646
 21
26.71165660272249
 31
0.0
  0
LINE
  5
BC
330
78
100
AcDbEntity
  8
A-DETL-GENF-OTLN
 62
     7
100
AcDbLine
 10
-61.53914084035684
 20
26.71165660271799
 30
0.0
 11
-61.32673690814345
 21
30.02383030419412
 31
0.0
  0
LINE
  5
BD
330
78
100
AcDbEntity
  8
A-DETL-GENF-OTLN
 62
     7
100
AcDbLine
 10
-61.32673690814346
 20
30.02383030419405
 30
0.0
 11
-60.93896284915299
 21
33.31132225651487
 31
0.0
  0
ARC
  5
BE
330
78
100
AcDbEntity
  8
A-DETL-GENF-OTLN
 62
     7
100
AcDbCircle
 10
-55.86582605445107
 20
32.24805695271181
 30
0.0
 40
5.183362812309196
100
AcDbArc
 50
100.1628671654892
 51
168.1628671654893
  0
LINE
  5
BF
330
78
100
AcDbEntity
  8
A-DETL-GENF-OTLN
 62
     7
100
AcDbLine
 10
-56.78041412423999
 20
37.35009367412314
 30
0.0
 11
-48.97881151368215
 21
37.35009367412312
 31
0.0
  0
LINE
  5
C0
330
78
100
AcDbEntity
  8
A-DETL-GENF-OTLN
 62
     7
100
AcDbLine
 10
-48.97881151368215
 20
37.35009367412312
 30
0.0
 11
-48.97881151368214
 21
42.34497290060087
 31
0.0
  0
LINE
  5
C1
330
78
100
AcDbEntity
  8
A-DETL-GENF-OTLN
 62
     7
100
AcDbLine
 10
-48.97881151368214
 20
42.34497290060087
 30
0.0
 11
-56.3547808025749
 21
42.34497290060089
 31
0.0
  0
ARC
  5
C2
330
78
100
AcDbEntity
  8
A-DETL-GENF-OTLN
 62
     7
100
AcDbCircle
 10
-56.3986438512275
 20
32.722288631414
 30
0.0
 40
9.622784239059605
100
AcDbArc
 50
89.73883065389726
 51
181.7901925161184
  0
LINE
  5
C3
330
78
100
AcDbEntity
  8
A-DETL-GENF-OTLN
 62
     7
100
AcDbLine
 10
-66.01673142478408
 20
32.42167602540674
 30
0.0
 11
-66.48742900464404
 21
27.00760650402056
 31
0.0
  0
LINE
  5
C4
330
78
100
AcDbEntity
  8
A-DETL-GENF-OTLN
 62
     7
100
AcDbLine
 10
-66.48742900464404
 20
27.00760650402056
 30
0.0
 11
-68.02916988118369
 21
9.279004636674311
 31
0.0
  0
ARC
  5
C5
330
78
100
AcDbEntity
  8
A-DETL-GENF-OTLN
 62
     7
100
AcDbCircle
 10
-70.00093881312148
 20
9.445192466767679
 30
0.0
 40
1.978759994498132
100
AcDbArc
 50
269.8050626959783
 51
355.1822904680071
  0
LWPOLYLINE
  5
C6
330
78
100
AcDbEntity
  8
A-DETL-GENF-OTLN
 62
     7
100
AcDbPolyline
 90
        3
 70
   128
 43
0.0
 10
-70.00767113088947
 20
7.466443924955523
 10
-72.26445208700387
 20
7.465317245654827
 10
-74.52019302649772
 20
7.464154830857262
  0
ARC
  5
C7
330
78
100
AcDbEntity
  8
A-DETL-GENF-OTLN
 62
     7
100
AcDbCircle
 10
-74.49704719523051
 20
12.39309095824485
 30
0.0
 40
4.928990472436696
100
AcDbArc
 50
196.6458454343613
 51
269.730946260443
  0
LINE
  5
C8
330
78
100
AcDbEntity
  8
A-DETL-GENF-OTLN
 62
     7
100
AcDbLine
 10
-79.21948178155513
 20
10.98115659176152
 30
0.0
 11
-82.52910680796739
 21
21.7874675636217
 31
0.0
  0
ARC
  5
C9
330
78
100
AcDbEntity
  8
A-DETL-GENF-OTLN
 62
     7
100
AcDbCircle
 10
-84.72727572904782
 20
21.11227544858146
 30
0.0
 40
2.299528429442955
100
AcDbArc
 50
17.07492428554689
 51
192.9739056308109
  0
LINE
  5
CA
330
78
100
AcDbEntity
  8
A-DETL-GENF-OTLN
 62
     7
100
AcDbLine
 10
-86.96810273107171
 20
20.59601460007467
 30
0.0
 11
-83.09426549939358
 21
3.781648189573005
 31
0.0
  0
LINE
  5
CB
330
78
100
AcDbEntity
  8
A-DETL-GENF-OTLN
 62
     7
100
AcDbLine
 10
83.09426549955666
 20
3.781648189573005
 30
0.0
 11
86.96810273123478
 21
20.59601460007467
 31
0.0
  0
ARC
  5
CC
330
78
100
AcDbEntity
  8
A-DETL-GENF-OTLN
 62
     7
100
AcDbCircle
 10
84.7272757292109
 20
21.11227544858146
 30
0.0
 40
2.299528429442951
100
AcDbArc
 50
347.0260943691879
 51
162.9250757144529
  0
LINE
  5
CD
330
78
100
AcDbEntity
  8
A-DETL-GENF-OTLN
 62
     7
100
AcDbLine
 10
82.52910680813046
 20
21.7874675636217
 30
0.0
 11
79.21948178171682
 21
10.98115659175697
 31
0.0
  0
ARC
  5
CE
330
78
100
AcDbEntity
  8
A-DETL-GENF-OTLN
 62
     7
100
AcDbCircle
 10
74.49704719539358
 20
12.39309095824482
 30
0.0
 40
4.928990472436654
100
AcDbArc
 50
270.2690537395563
 51
343.3541545655962
  0
LWPOLYLINE
  5
CF
330
78
100
AcDbEntity
  8
A-DETL-GENF-OTLN
 62
     7
100
AcDbPolyline
 90
        3
 70
   128
 43
0.0
 10
74.52019302666449
 20
7.46415483085726
 10
72.26445208717048
 20
7.465317245654825
 10
70.00767113105649
 20
7.466443924955521
  0
ARC
  5
D0
330
78
100
AcDbEntity
  8
A-DETL-GENF-OTLN
 62
     7
100
AcDbCircle
 10
70.00093881328452
 20
9.445192466767675
 30
0.0
 40
1.978759994498132
100
AcDbArc
 50
184.8177095319924
 51
270.1949373040214
  0
LINE
  5
D1
330
78
100
AcDbEntity
  8
A-DETL-GENF-OTLN
 62
     7
100
AcDbLine
 10
68.02916988134673
 20
9.279004636674311
 30
0.0
 11
66.48742900480709
 21
27.00760650402056
 31
0.0
  0
LINE
  5
D2
330
78
100
AcDbEntity
  8
A-DETL-GENF-OTLN
 62
     7
100
AcDbLine
 10
66.48742900480709
 20
27.00760650402056
 30
0.0
 11
66.01673142494712
 21
32.42167602540674
 31
0.0
  0
ARC
  5
D3
330
78
100
AcDbEntity
  8
A-DETL-GENF-OTLN
 62
     7
100
AcDbCircle
 10
56.39864385139055
 20
32.722288631414
 30
0.0
 40
9.622784239059621
100
AcDbArc
 50
358.2098074838804
 51
90.26116934658833
  0
LINE
  5
D4
330
78
100
AcDbEntity
  8
A-DETL-GENF-OTLN
 62
     7
100
AcDbLine
 10
56.35478080265633
 20
42.34497290060052
 30
0.0
 11
48.9788115138458
 21
42.34497290060055
 31
0.0
  0
LINE
  5
D5
330
78
100
AcDbEntity
  8
A-DETL-GENF-OTLN
 62
     7
100
AcDbLine
 10
48.9788115138458
 20
42.34497290060055
 30
0.0
 11
48.9788115138458
 21
37.3500936741228
 31
0.0
  0
LINE
  5
D6
330
78
100
AcDbEntity
  8
A-DETL-GENF-OTLN
 62
     7
100
AcDbLine
 10
48.9788115138458
 20
37.3500936741228
 30
0.0
 11
56.78041412440513
 21
37.35009367412277
 31
0.0
  0
ARC
  5
D7
330
78
100
AcDbEntity
  8
A-DETL-GENF-OTLN
 62
     7
100
AcDbCircle
 10
55.86582605461412
 20
32.24805695271181
 30
0.0
 40
5.183362812309205
100
AcDbArc
 50
11.83713283451115
 51
79.83713283448802
  0
LINE
  5
D8
330
78
100
AcDbEntity
  8
A-DETL-GENF-OTLN
 62
     7
100
AcDbLine
 10
60.93896284931602
 20
33.31132225651487
 30
0.0
 11
61.32673690830658
 21
30.02383030419343
 31
0.0
  0
LINE
  5
D9
330
78
100
AcDbEntity
  8
A-DETL-GENF-OTLN
 62
     7
100
AcDbLine
 10
61.32673690830657
 20
30.0238303041936
 30
0.0
 11
61.5391408405192
 21
26.71165660272917
 31
0.0
  0
LINE
  5
DA
330
78
100
AcDbEntity
  8
A-DETL-GENF-OTLN
 62
     7
100
AcDbLine
 10
61.53914084051987
 20
26.71165660271829
 30
0.0
 11
63.97442937490156
 21
-1.429030733470361
 31
0.0
  0
LINE
  5
DB
330
78
100
AcDbEntity
  8
A-DETL-GENF-OTLN
 62
     7
100
AcDbLine
 10
75.03915191044022
 20
-1.42903073347033
 30
0.0
 11
75.03915191044022
 21
3.78164818957298
 31
0.0
  0
LINE
  5
DC
330
78
100
AcDbEntity
  8
A-DETL-GENF-OTLN
 62
     7
100
AcDbLine
 10
75.03915191044022
 20
3.781648189572979
 30
0.0
 11
83.09426549955666
 21
3.781648189573005
 31
0.0
  0
LINE
  5
DD
330
78
100
AcDbEntity
  8
A-DETL-GENF-OTLN
 62
     7
100
AcDbLine
 10
-42.79918129578561
 20
42.34497290060086
 30
0.0
 11
-42.79918129578562
 21
37.3500936741231
 31
0.0
  0
LINE
  5
DE
330
78
100
AcDbEntity
  8
A-DETL-GENF-OTLN
 62
     7
100
AcDbLine
 10
-42.79918129578562
 20
37.3500936741231
 30
0.0
 11
-39.04409483944295
 21
37.35009367412309
 31
0.0
  0
LINE
  5
DF
330
78
100
AcDbEntity
  8
A-DETL-GENF-OTLN
 62
     7
100
AcDbLine
 10
-39.04409483944295
 20
37.35009367412309
 30
0.0
 11
-39.04409483944294
 21
42.34497290060083
 31
0.0
  0
LINE
  5
E0
330
78
100
AcDbEntity
  8
A-DETL-GENF-OTLN
 62
     7
100
AcDbLine
 10
-39.04409483944294
 20
42.34497290060083
 30
0.0
 11
-42.79918129578561
 21
42.34497290060086
 31
0.0
  0
LINE
  5
E1
330
78
100
AcDbEntity
  8
A-DETL-GENF-OTLN
 62
     7
100
AcDbLine
 10
-31.73497407225776
 20
42.34497290060081
 30
0.0
 11
-31.73497407225776
 21
37.35009367412306
 31
0.0
  0
LINE
  5
E2
330
78
100
AcDbEntity
  8
A-DETL-GENF-OTLN
 62
     7
100
AcDbLine
 10
-31.73497407225776
 20
37.35009367412306
 30
0.0
 11
-26.52460304685619
 21
37.35009367412305
 31
0.0
  0
LINE
  5
E3
330
78
100
AcDbEntity
  8
A-DETL-GENF-OTLN
 62
     7
100
AcDbLine
 10
-26.52460304685619
 20
37.35009367412305
 30
0.0
 11
-26.52460304685618
 21
42.3449729006008
 31
0.0
  0
LINE
  5
E4
330
78
100
AcDbEntity
  8
A-DETL-GENF-OTLN
 62
     7
100
AcDbLine
 10
-26.52460304685618
 20
42.3449729006008
 30
0.0
 11
-31.73497407225776
 21
42.34497290060081
 31
0.0
  0
LINE
  5
E5
330
78
100
AcDbEntity
  8
A-DETL-GENF-OTLN
 62
     7
100
AcDbLine
 10
-17.92214761411281
 20
42.34497290060077
 30
0.0
 11
-17.92214761411283
 21
37.35009367412301
 31
0.0
  0
LINE
  5
E6
330
78
100
AcDbEntity
  8
A-DETL-GENF-OTLN
 62
     7
100
AcDbLine
 10
-17.92214761411283
 20
37.35009367412301
 30
0.0
 11
-12.04109444288432
 21
37.35009367412299
 31
0.0
  0
LINE
  5
E7
330
78
100
AcDbEntity
  8
A-DETL-GENF-OTLN
 62
     7
100
AcDbLine
 10
-12.04109444288432
 20
37.35009367412299
 30
0.0
 11
-12.04109444288431
 21
42.34497290060075
 31
0.0
  0
LINE
  5
E8
330
78
100
AcDbEntity
  8
A-DETL-GENF-OTLN
 62
     7
100
AcDbLine
 10
-12.04109444288431
 20
42.34497290060075
 30
0.0
 11
-17.92214761411281
 21
42.34497290060077
 31
0.0
  0
LINE
  5
E9
330
78
100
AcDbEntity
  8
A-DETL-GENF-OTLN
 62
     7
100
AcDbLine
 10
-3.318833215328708
 20
42.34497290060072
 30
0.0
 11
-3.318833215328708
 21
37.35009367412297
 31
0.0
  0
LINE
  5
EA
330
78
100
AcDbEntity
  8
A-DETL-GENF-OTLN
 62
     7
100
AcDbLine
 10
-3.318833215328708
 20
37.35009367412297
 30
0.0
 11
3.318833215491748
 21
37.35009367412294
 31
0.0
  0
LINE
  5
EB
330
78
100
AcDbEntity
  8
A-DETL-GENF-OTLN
 62
     7
100
AcDbLine
 10
3.318833215491748
 20
37.35009367412294
 30
0.0
 11
3.318833215491748
 21
42.3449729006007
 31
0.0
  0
LINE
  5
EC
330
78
100
AcDbEntity
  8
A-DETL-GENF-OTLN
 62
     7
100
AcDbLine
 10
3.318833215491748
 20
42.3449729006007
 30
0.0
 11
-3.318833215328708
 21
42.34497290060072
 31
0.0
  0
LINE
  5
ED
330
78
100
AcDbEntity
  8
A-DETL-GENF-OTLN
 62
     7
100
AcDbLine
 10
12.04109444304743
 20
42.34497290060067
 30
0.0
 11
12.04109444304743
 21
37.35009367412292
 31
0.0
  0
LINE
  5
EE
330
78
100
AcDbEntity
  8
A-DETL-GENF-OTLN
 62
     7
100
AcDbLine
 10
12.04109444304743
 20
37.35009367412292
 30
0.0
 11
17.92214761427593
 21
37.3500936741229
 31
0.0
  0
LINE
  5
EF
330
78
100
AcDbEntity
  8
A-DETL-GENF-OTLN
 62
     7
100
AcDbLine
 10
17.92214761427593
 20
37.3500936741229
 30
0.0
 11
17.92214761427593
 21
42.34497290060065
 31
0.0
  0
LINE
  5
F0
330
78
100
AcDbEntity
  8
A-DETL-GENF-OTLN
 62
     7
100
AcDbLine
 10
17.92214761427593
 20
42.34497290060065
 30
0.0
 11
12.04109444304743
 21
42.34497290060067
 31
0.0
  0
LINE
  5
F1
330
78
100
AcDbEntity
  8
A-DETL-GENF-OTLN
 62
     7
100
AcDbLine
 10
26.52460304701937
 20
42.34497290060063
 30
0.0
 11
26.52460304701937
 21
37.35009367412287
 31
0.0
  0
LINE
  5
F2
330
78
100
AcDbEntity
  8
A-DETL-GENF-OTLN
 62
     7
100
AcDbLine
 10
26.52460304701937
 20
37.35009367412287
 30
0.0
 11
31.73497407242101
 21
37.35009367412285
 31
0.0
  0
LINE
  5
F3
330
78
100
AcDbEntity
  8
A-DETL-GENF-OTLN
 62
     7
100
AcDbLine
 10
31.73497407242101
 20
37.35009367412285
 30
0.0
 11
31.73497407242101
 21
42.34497290060061
 31
0.0
  0
LINE
  5
F4
330
78
100
AcDbEntity
  8
A-DETL-GENF-OTLN
 62
     7
100
AcDbLine
 10
31.73497407242101
 20
42.34497290060061
 30
0.0
 11
26.52460304701937
 21
42.34497290060063
 31
0.0
  0
LINE
  5
F5
330
78
100
AcDbEntity
  8
A-DETL-GENF-OTLN
 62
     7
100
AcDbLine
 10
39.0440948396064
 20
42.34497290060058
 30
0.0
 11
39.0440948396064
 21
37.35009367412283
 31
0.0
  0
LINE
  5
F6
330
78
100
AcDbEntity
  8
A-DETL-GENF-OTLN
 62
     7
100
AcDbLine
 10
39.0440948396064
 20
37.35009367412283
 30
0.0
 11
42.79918129594917
 21
37.35009367412281
 31
0.0
  0
LINE
  5
F7
330
78
100
AcDbEntity
  8
A-DETL-GENF-OTLN
 62
     7
100
AcDbLine
 10
42.79918129594917
 20
37.35009367412281
 30
0.0
 11
42.79918129594917
 21
42.34497290060057
 31
0.0
  0
LINE
  5
F8
330
78
100
AcDbEntity
  8
A-DETL-GENF-OTLN
 62
     7
100
AcDbLine
 10
42.79918129594917
 20
42.34497290060057
 30
0.0
 11
39.0440948396064
 21
42.34497290060058
 31
0.0
  0
LINE
  5
F9
330
78
100
AcDbEntity
  8
A-DETL-GENF-OTLN
 62
     7
100
AcDbLine
 10
-3.318833215328709
 20
36.99897759645626
 30
0.0
 11
-3.318833215328708
 21
37.35009367412298
 31
0.0
  0
ARC
  5
FA
330
78
100
AcDbEntity
  8
A-DETL-GENF-OTLN
 62
     7
100
AcDbCircle
 10
-7.685310765055163
 20
34.0802776542923
 30
0.0
 40
5.44651707530458
100
AcDbArc
 50
143.1050379961514
 51
147.2492584659821
  0
ARC
  5
FB
330
78
100
AcDbEntity
  8
A-DETL-GENF-OTLN
 62
     7
100
AcDbCircle
 10
-14.0111127018802
 20
34.37279560799846
 30
0.0
 40
4.915332934731006
100
AcDbArc
 50
142.7195845469686
 51
147.3027641724833
  0
ARC
  5
FC
330
78
100
AcDbEntity
  8
A-DETL-GENF-OTLN
 62
     7
100
AcDbCircle
 10
-22.19409537737802
 20
33.30672127311626
 30
0.0
 40
5.924707338648254
100
AcDbArc
 50
136.9638680873189
 51
141.0282865159566
  0
ARC
  5
FD
330
78
100
AcDbEntity
  8
A-DETL-GENF-OTLN
 62
     7
100
AcDbCircle
 10
-26.98342667119439
 20
33.16476755483291
 30
0.0
 40
6.331994743314691
100
AcDbArc
 50
138.6252928951148
 51
142.3748594151948
  0
ARC
  5
FE
330
78
100
AcDbEntity
  8
A-DETL-GENF-OTLN
 62
     7
100
AcDbCircle
 10
-36.56924909932712
 20
33.48379452862794
 30
0.0
 40
4.590547954201743
100
AcDbArc
 50
122.6235983048862
 51
128.7616730656592
  0
ARC
  5
FF
330
78
100
AcDbEntity
  8
A-DETL-GENF-OTLN
 62
     7
100
AcDbCircle
 10
-40.52009466170143
 20
33.0403265391272
 30
0.0
 40
4.875277288888486
100
AcDbArc
 50
117.8707355692612
 51
124.0412815244888
  0
ARC
  5
100
330
78
100
AcDbEntity
  8
A-DETL-GENF-OTLN
 62
     7
100
AcDbCircle
 10
-46.77651684160347
 20
33.35270411269711
 30
0.0
 40
4.563904592392769
100
AcDbArc
 50
118.8518287202001
 51
125.3734596520583
  0
HATCH
  5
101
330
78
100
AcDbEntity
  8
A-DETL-GENF-OTLN
100
AcDbHatch
 10
0.0
 20
0.0
 30
0.0
210
0.0
220
0.0
230
1.0
  2
FP_1
 70
     0
 71
     0
 91
        1
 92
        1
 93
        4
 72
     1
 10
-52.77753361326361
 20
-4.423830934645741
 11
-52.77753361326361
 21
36.99897759645891
 72
     1
 10
-52.77753361326361
 20
36.99897759645891
 11
-55.27883991935417
 21
36.99897759645891
 72
     1
 10
-55.27883991935417
 20
36.99897759645891
 11
-55.27883991935417
 21
-4.423830934645742
 72
     1
 10
-55.27883991935417
 20
-4.423830934645741
 11
-52.77753361326361
 21
-4.423830934645741
 97
        0
 75
     0
 76
     2
 52
0.0
 41
1.0
 77
     0
 78
     1
 53
45.0
 43
-3161.701
 44
-2040.053
 45
-3.535533905932737
 46
3.535533905932737
 79
     0
 98
        1
 10
0.0
 20
0.0
  0
LINE
  5
102
330
78
100
AcDbEntity
  8
A-DETL-GENF-OTLN
 62
     7
100
AcDbLine
 10
-52.77753361326744
 20
36.99897759645619
 30
0.0
 11
-55.27883991935799
 21
36.99897759645619
 31
0.0
  0
LINE
  5
103
330
78
100
AcDbEntity
  8
A-DETL-GENF-OTLN
 62
     7
100
AcDbLine
 10
-55.27883991935799
 20
36.99897759645619
 30
0.0
 11
-55.27883991935799
 21
-4.423830934648321
 31
0.0
  0
LINE
  5
104
330
78
100
AcDbEntity
  8
A-DETL-GENF-OTLN
 62
     7
100
AcDbLine
 10
3.318833215491748
 20
36.99897759645625
 30
0.0
 11
3.318833215491748
 21
37.35009367412295
 31
0.0
  0
ARC
  5
105
330
78
100
AcDbEntity
  8
A-DETL-GENF-OTLN
 62
     7
100
AcDbCircle
 10
7.685310765218202
 20
34.0802776542923
 30
0.0
 40
5.44651707530458
100
AcDbArc
 50
32.750741534017
 51
36.89496200384756
  0
ARC
  5
106
330
78
100
AcDbEntity
  8
A-DETL-GENF-OTLN
 62
     7
100
AcDbCircle
 10
14.01111270204324
 20
34.37279560799846
 30
0.0
 40
4.915332934731007
100
AcDbArc
 50
32.6972358275166
 51
37.28041545302974
  0
ARC
  5
107
330
78
100
AcDbEntity
  8
A-DETL-GENF-OTLN
 62
     7
100
AcDbCircle
 10
22.19409537754105
 20
33.30672127311626
 30
0.0
 40
5.924707338648256
100
AcDbArc
 50
38.97171348404351
 51
43.03613191267888
  0
ARC
  5
108
330
78
100
AcDbEntity
  8
A-DETL-GENF-OTLN
 62
     7
100
AcDbCircle
 10
26.9834266713574
 20
33.16476755483291
 30
0.0
 40
6.331994743314692
100
AcDbArc
 50
37.62514058480493
 51
41.37470710488273
  0
ARC
  5
109
330
78
100
AcDbEntity
  8
A-DETL-GENF-OTLN
 62
     7
100
AcDbCircle
 10
36.56924909949016
 20
33.48379452862794
 30
0.0
 40
4.59054795420175
100
AcDbArc
 50
51.23832693433922
 51
57.37640169510791
  0
ARC
  5
10A
330
78
100
AcDbEntity
  8
A-DETL-GENF-OTLN
 62
     7
100
AcDbCircle
 10
40.52009466186447
 20
33.0403265391272
 30
0.0
 40
4.875277288888481
100
AcDbArc
 50
55.95871847550839
 51
62.12926443073175
  0
ARC
  5
10B
330
78
100
AcDbEntity
  8
A-DETL-GENF-OTLN
 62
     7
100
AcDbCircle
 10
46.7765168417665
 20
33.35270411269711
 30
0.0
 40
4.563904592392766
100
AcDbArc
 50
54.62654034794159
 51
61.14817127979121
  0
HATCH
  5
10C
330
78
100
AcDbEntity
  8
A-DETL-GENF-OTLN
100
AcDbHatch
 10
0.0
 20
0.0
 30
0.0
210
0.0
220
0.0
230
1.0
  2
FP_1
 70
     0
 71
     0
 91
        1
 92
        1
 93
        5
 72
     1
 10
52.77753361343443
 20
-4.423830934645741
 11
55.27883991952499
 21
-4.423830934645741
 72
     1
 10
55.27883991952499
 20
-4.423830934645741
 11
55.27883991952499
 21
36.99897759645891
 72
     1
 10
55.27883991952499
 20
36.99897759645891
 11
52.77753361343443
 21
36.99897759645891
 72
     1
 10
52.77753361343443
 20
36.99897759645891
 11
52.77753361343443
 21
-4.195687534718729
 72
     1
 10
52.77753361343443
 20
-4.195687534718728
 11
52.77753361343443
 21
-4.423830934645741
 97
        0
 75
     0
 76
     2
 52
0.0
 41
1.0
 77
     0
 78
     1
 53
45.0
 43
-3161.701
 44
-2040.053
 45
-3.535533905932737
 46
3.535533905932737
 79
     0
 98
        1
 10
0.0
 20
0.0
  0
LINE
  5
10D
330
78
100
AcDbEntity
  8
A-DETL-GENF-OTLN
 62
     7
100
AcDbLine
 10
55.27883991952103
 20
-4.423830934648321
 30
0.0
 11
55.27883991952103
 21
36.99897759645619
 31
0.0
  0
LINE
  5
10E
330
78
100
AcDbEntity
  8
A-DETL-GENF-OTLN
 62
     7
100
AcDbLine
 10
55.27883991952103
 20
36.99897759645619
 30
0.0
 11
52.77753361343048
 21
36.99897759645619
 31
0.0
  0
LINE
  5
10F
330
78
100
AcDbEntity
  8
A-DETL-GENF-OTLN
 62
     7
100
AcDbLine
 10
52.77753361343048
 20
36.99897759645619
 30
0.0
 11
-52.77753361326744
 21
36.99897759645619
 31
0.0
  0
LINE
  5
110
330
78
100
AcDbEntity
  8
A-DETL-GENF-OTLN
 62
     7
100
AcDbLine
 10
-52.77753361326744
 20
36.99897759645619
 30
0.0
 11
-52.77753361326744
 21
-4.423830934647983
 31
0.0
  0
LINE
  5
111
330
78
100
AcDbEntity
  8
A-DETL-GENF-OTLN
 62
     7
100
AcDbLine
 10
-51.4107443795014
 20
-4.423830934647983
 30
0.0
 11
51.41074437950144
 21
-4.423830934647983
 31
0.0
  0
LINE
  5
112
330
78
100
AcDbEntity
  8
A-DETL-GENF-OTLN
 62
     7
100
AcDbLine
 10
52.77753361343048
 20
-4.423830934647983
 30
0.0
 11
52.77753361343048
 21
36.99897759645619
 31
0.0
  0
LINE
  5
113
330
78
100
AcDbEntity
  8
A-DETL-GENF-OTLN
 62
     7
100
AcDbLine
 10
-48.97881151368219
 20
37.35009367412312
 30
0.0
 11
48.9788115138458
 21
37.3500936741228
 31
0.0
  0
HATCH
  5
114
330
78
100
AcDbEntity
  8
A-DETL-GENF-OTLN
100
AcDbHatch
 10
0.0
 20
0.0
 30
0.0
210
0.0
220
0.0
230
1.0
  2
FP_1
 70
     0
 71
     0
 91
        1
 92
        1
 93
       32
 72
     1
 10
72.14632269661333
 20
-31.1460708456018
 11
126.9753492679684
 21
-30.18902606904463
 72
     1
 10
126.9753492679684
 20
-30.18902606904463
 11
126.9978292002099
 21
-28.32588442406203
 72
     1
 10
126.9978292002099
 20
-28.32588442406203
 11
126.8790876364651
 21
-27.98170343314334
 72
     1
 10
126.8790876364651
 20
-27.98170343314334
 11
126.6807910682755
 21
-27.67635349534318
 72
     1
 10
126.6807910682755
 20
-27.67635349534318
 11
126.4146626324459
 21
-27.42788665829398
 72
     1
 10
126.4146626324459
 20
-27.42788665829398
 11
126.0964356323283
 21
-27.25099208554925
 72
     1
 10
126.0964356323283
 20
-27.25099208554925
 11
124.1148475386089
 21
-26.4469262682317
 72
     1
 10
124.1148475386089
 20
-26.4469262682317
 11
78.85693377845732
 21
-24.79865735825935
 72
     1
 10
78.85693377845732
 20
-24.79865735825935
 11
78.21512540932443
 21
-24.69034997267875
 72
     1
 10
78.21512540932443
 20
-24.69034997267875
 11
77.62315065006119
 21
-24.41976845657721
 72
     1
 10
77.62315065006119
 20
-24.41976845657721
 11
77.12127522277772
 21
-24.00531758138277
 72
     1
 10
77.12127522277772
 20
-24.00531758138277
 11
76.74363635405746
 21
-23.47518801486907
 72
     1
 10
76.74363635405746
 20
-23.47518801486907
 11
76.51592078393062
 21
-22.86543881103003
 72
     1
 10
76.51592078393062
 20
-22.86543881103003
 11
76.4536175143808
 21
-22.2175446956701
 72
     1
 10
76.4536175143808
 20
-22.2175446956701
 11
76.56648537044195
 21
-18.98548364922575
 72
     1
 10
76.56648537044195
 20
-18.98548364922575
 11
76.65725297635937
 21
-18.39759721068053
 72
     1
 10
76.65725297635937
 20
-18.39759721068053
 11
76.8845686274512
 21
-17.84789109130554
 72
     1
 10
76.8845686274512
 20
-17.84789109130554
 11
77.23551750647748
 21
-17.36759515330612
 72
     1
 10
77.23551750647748
 20
-17.36759515330612
 11
89.35225079175756
 21
-4.450669879077233
 72
     1
 10
89.35225079175756
 20
-4.450669879077233
 11
89.81122607111263
 21
-4.195687534718728
 72
     1
 10
89.81122607111263
 20
-4.195687534718728
 11
90.28439158254567
 21
-4.045363220512241
 72
     1
 10
90.28439158254567
 20
-4.045363220512241
 11
90.79261396038035
 21
-3.993067244803707
 72
     1
 10
90.79261396038035
 20
-3.993067244803707
 11
114.800693282551
 21
-3.993067244803707
 72
     1
 10
114.800693282551
 20
-3.993067244803707
 11
114.800693282551
 21
0.0000000000026397
 72
     1
 10
114.800693282551
 20
0.0000000000026395
 11
90.14152577097402
 21
-0.0000001029955534
 72
     1
 10
90.14152577097402
 20
-0.0000001029955534
 11
89.12508169323171
 21
-0.104591157018973
 72
     1
 10
89.12508169323171
 20
-0.104591157018973
 11
88.15123582627926
 21
-0.4139810068505487
 72
     1
 10
88.15123582627926
 20
-0.4139810068505487
 11
87.26080113014644
 21
-0.9152034162476688
 72
     1
 10
87.26080113014644
 20
-0.9152034162476688
 11
86.49109235413011
 21
-1.587252241570342
 72
     1
 10
86.49109235413011
 20
-1.587252241570342
 11
72.66062255287575
 21
-16.41862227872038
 72
     1
 10
72.66062255287575
 20
-16.41862227872038
 11
72.31168154968902
 21
-26.41086827049166
 72
     1
 10
72.31168154968902
 20
-26.41086827049166
 11
72.14632269661333
 21
-31.1460708456018
 97
        0
 75
     0
 76
     2
 52
0.0
 41
1.0
 77
     0
 78
     1
 53
45.0
 43
-3161.701
 44
-2040.053
 45
-3.535533905932737
 46
3.535533905932737
 79
     0
 98
        1
 10
0.0
 20
0.0
  0
LINE
  5
115
330
78
100
AcDbEntity
  8
A-DETL-GENF-OTLN
 62
     7
100
AcDbLine
 10
124.1148475386048
 20
-26.44692626823417
 30
0.0
 11
78.85693378526662
 21
-24.79865717118308
 31
0.0
  0
ARC
  5
116
330
78
100
AcDbEntity
  8
A-DETL-GENF-OTLN
 62
     7
100
AcDbCircle
 10
78.94776442981265
 20
-22.30464361212307
 30
0.0
 40
2.495667200000024
100
AcDbArc
 50
177.9999681779376
 51
267.9142400904425
  0
LINE
  5
117
330
78
100
AcDbEntity
  8
A-DETL-GENF-OTLN
 62
     7
100
AcDbLine
 10
76.45361751437682
 20
-22.21754469567269
 30
0.0
 11
76.56648537043778
 21
-18.98548364923419
 31
0.0
  0
ARC
  5
118
330
78
100
AcDbEntity
  8
A-DETL-GENF-OTLN
 62
     7
100
AcDbCircle
 10
79.0607333681841
 20
-19.06963647981136
 30
0.0
 40
2.495667199999986
100
AcDbArc
 50
137.0000000000021
 51
178.0676445178414
  0
LINE
  5
119
330
78
100
AcDbEntity
  8
A-DETL-GENF-OTLN
 62
     7
100
AcDbLine
 10
77.23551750647356
 20
-17.36759515330868
 30
0.0
 11
88.96739692466736
 21
-4.786694295301456
 31
0.0
  0
ARC
  5
11A
330
78
100
AcDbEntity
  8
A-DETL-GENF-OTLN
 62
     7
100
AcDbCircle
 10
90.79261396037642
 20
-6.488734822998631
 30
0.0
 40
2.495667200000043
100
AcDbArc
 50
89.99999999999969
 51
137.0000317940788
  0
LINE
  5
11B
330
78
100
AcDbEntity
  8
A-DETL-GENF-OTLN
 62
     7
100
AcDbLine
 10
90.79261396037644
 20
-3.993067244806296
 30
0.0
 11
114.8006932825469
 21
-3.993067244806296
 31
0.0
  0
LINE
  5
11C
330
78
100
AcDbEntity
  8
A-DETL-GENF-OTLN
 62
     7
100
AcDbLine
 10
114.8006932825469
 20
-3.993067244806296
 30
0.0
 11
114.8006932825469
 21
0.0
 31
0.0
  0
LINE
  5
11D
330
78
100
AcDbEntity
  8
A-DETL-GENF-OTLN
 62
     7
100
AcDbLine
 10
114.8006932825469
 20
0.0
 30
0.0
 11
90.14152577097002
 21
0.0
 31
0.0
  0
ARC
  5
11E
330
78
100
AcDbEntity
  8
A-DETL-GENF-OTLN
 62
     7
100
AcDbCircle
 10
90.14152577097002
 20
-4.991334502998137
 30
0.0
 40
4.991334399999993
100
AcDbArc
 50
89.99999999999996
 51
137.0000000000028
  0
LINE
  5
11F
330
78
100
AcDbEntity
  8
A-DETL-GENF-OTLN
 62
     7
100
AcDbLine
 10
86.49109235412607
 20
-1.587252241572969
 30
0.0
 11
72.6606225528717
 21
-16.41862227872298
 31
0.0
  0
LINE
  5
120
330
78
100
AcDbEntity
  8
A-DETL-GENF-OTLN
 62
     7
100
AcDbLine
 10
72.6606225528717
 20
-16.41862227872298
 30
0.0
 11
72.14632269660933
 21
-31.1460708456043
 31
0.0
  0
LINE
  5
121
330
78
100
AcDbEntity
  8
A-DETL-GENF-OTLN
 62
     7
100
AcDbLine
 10
72.14632269660933
 20
-31.1460708456043
 30
0.0
 11
126.9753492679644
 21
-30.18902606904717
 31
0.0
  0
LINE
  5
122
330
78
100
AcDbEntity
  8
A-DETL-GENF-OTLN
 62
     7
100
AcDbLine
 10
126.9753492679644
 20
-30.18902606904717
 30
0.0
 11
127.0299958518546
 21
-28.6885487592176
 31
0.0
  0
ARC
  5
123
330
78
100
AcDbEntity
  8
A-DETL-GENF-OTLN
 62
     7
100
AcDbCircle
 10
125.5334167101562
 20
-28.63852973318961
 30
0.0
 40
1.497414782327024
100
AcDbArc
 50
358.0857593058381
 51
67.91424069415907
  0
LINE
  5
124
330
78
100
AcDbEntity
  8
A-DETL-GENF-OTLN
 62
     7
100
AcDbLine
 10
126.0964356323242
 20
-27.25099208555183
 30
0.0
 11
124.1148475386048
 21
-26.44692626823417
 31
0.0
  0
HATCH
  5
125
330
78
100
AcDbEntity
  8
A-DETL-GENF-OTLN
100
AcDbHatch
 10
0.0
 20
0.0
 30
0.0
210
0.0
220
0.0
230
1.0
  2
FP_1
 70
     0
 71
     0
 91
        1
 92
        1
 93
       79
 72
     1
 10
122.1455390345044
 20
-101.6518764423538
 11
124.4960012363736
 21
-100.7910178797617
 72
     1
 10
124.4960012363736
 20
-100.7910178797617
 11
124.7745680362127
 21
-100.5559923670119
 72
     1
 10
124.7745680362127
 20
-100.5559923670119
 11
124.9881031686532
 21
-100.2606295378853
 72
     1
 10
124.9881031686532
 20
-100.2606295378853
 11
125.1239560440626
 21
-99.92242774921606
 72
     1
 10
125.1239560440626
 20
-99.92242774921606
 11
125.1742391960187
 21
-99.55551025842426
 72
     1
 10
125.1742391960187
 20
-99.55551025842426
 11
125.198426491856
 21
-98.03554101960907
 72
     1
 10
125.198426491856
 20
-98.03554101960907
 11
57.333887360234
 21
-96.8509585370041
 72
     1
 10
57.33388736023401
 20
-96.8509585370041
 11
-21.61221692078471
 21
-89.94406947356878
 72
     1
 10
-21.61221692078471
 20
-89.94406947356878
 11
-26.53123461654205
 21
-89.20708521009009
 72
     1
 10
-26.53123461654205
 20
-89.20708521009009
 11
-31.25858310480159
 21
-87.9081969332587
 72
     1
 10
-31.25858310480159
 20
-87.9081969332587
 11
-35.82646345653664
 21
-86.03187111315907
 72
     1
 10
-35.82646345653664
 20
-86.03187111315907
 11
-40.138272458827
 21
-83.62470833953766
 72
     1
 10
-40.138272458827
 20
-83.62470833953766
 11
-44.12495934330165
 21
-80.7105262628481
 72
     1
 10
-44.12495934330165
 20
-80.7105262628481
 11
-47.73606784728475
 21
-77.34214017105262
 72
     1
 10
-47.73606784728475
 20
-77.34214017105262
 11
-50.91024580793657
 21
-73.5591884445494
 72
     1
 10
-50.91024580793657
 20
-73.5591884445494
 11
-53.61113015737878
 21
-69.42501945648423
 72
     1
 10
-53.61113015737878
 20
-69.42501945648423
 11
-55.78862711211148
 21
-64.99279241998559
 72
     1
 10
-55.78862711211148
 20
-64.99279241998559
 11
-57.42257665615952
 21
-60.33271319550391
 72
     1
 10
-57.42257665615952
 20
-60.33271319550391
 11
-58.47151360273769
 21
-55.54369808096912
 72
     1
 10
-58.47151360273769
 20
-55.54369808096912
 11
-58.94925968077423
 21
-50.59277497707133
 72
     1
 10
-58.94925968077423
 20
-50.59277497707133
 11
-59.08509585932781
 21
-46.70296225816633
 72
     1
 10
-59.08509585932781
 20
-46.70296225816633
 11
-59.41997487219087
 21
-44.56467395869903
 72
     1
 10
-59.41997487219087
 20
-44.56467395869903
 11
-60.25650241925074
 21
-42.56851703402995
 72
     1
 10
-60.25650241925074
 20
-42.56851703402995
 11
-61.54613201396928
 21
-40.83033513522862
 72
     1
 10
-61.54613201396928
 20
-40.83033513522862
 11
-63.21402214517414
 21
-39.45100076129165
 72
     1
 10
-63.21402214517414
 20
-39.45100076129165
 11
-65.16337957983117
 21
-38.5105612912342
 72
     1
 10
-65.16337957983117
 20
-38.5105612912342
 11
-67.45069991052034
 21
-38.04875273955374
 72
     1
 10
-67.45069991052034
 20
-38.04875273955374
 11
-70.63007856422723
 21
-37.71238598418586
 72
     1
 10
-70.63007856422723
 20
-37.71238598418586
 11
-71.06343363953534
 21
-37.50323019019631
 72
     1
 10
-71.06343363953534
 20
-37.50323019019631
 11
-71.4341608593992
 21
-37.19646628112831
 72
     1
 10
-71.4341608593992
 20
-37.19646628112831
 11
-71.72072584355681
 21
-36.80991320933957
 72
     1
 10
-71.72072584355681
 20
-36.80991320933957
 11
-71.90648293178213
 21
-36.36602462914335
 72
     1
 10
-71.90648293178213
 20
-36.36602462914335
 11
-71.98064207802531
 21
-35.89058463452047
 72
     1
 10
-71.98064207802531
 20
-35.89058463452047
 11
-72.6606225528679
 21
-16.41862227872038
 72
     1
 10
-72.6606225528679
 20
-16.41862227872038
 11
-86.49109389854661
 21
-1.587253681768464
 72
     1
 10
-86.49109389854661
 20
-1.587253681768464
 11
-87.26080024737298
 21
-0.9152040401249161
 72
     1
 10
-87.26080024737298
 20
-0.9152040401249161
 11
-88.15123516539475
 21
-0.4139812942080886
 72
     1
 10
-88.15123516539475
 20
-0.4139812942080886
 11
-89.12508134045065
 21
-0.1045912303960124
 72
     1
 10
-89.12508134045065
 20
-0.1045912303960124
 11
-90.14152577096629
 21
0.0000000000026395
 72
     1
 10
-90.14152577096629
 20
0.0000000000026395
 11
-114.8006932825432
 21
0.0000000000026395
 72
     1
 10
-114.8006932825432
 20
0.0000000000026395
 11
-114.8006932825432
 21
-3.993067244803707
 72
     1
 10
-114.8006932825432
 20
-3.993067244803707
 11
-90.28439304436986
 21
-4.045362916451069
 72
     1
 10
-90.28439304436986
 20
-4.045362916451069
 11
-89.79746968921022
 21
-4.200057770039753
 72
     1
 10
-89.79746968921022
 20
-4.200057770039753
 11
-89.35225195216135
 21
-4.450669058979251
 72
     1
 10
-89.35225195216135
 20
-4.450669058979251
 11
-88.96739786914563
 21
-4.786693282465764
 72
     1
 10
-88.96739786914563
 20
-4.786693282465764
 11
-77.23551758700597
 21
-17.3675959029399
 72
     1
 10
-77.23551758700597
 20
-17.3675959029399
 11
-76.88553095945406
 21
-17.84617857116335
 72
     1
 10
-76.88553095945406
 20
-17.84617857116335
 11
-76.65831403630829
 21
-18.39381392395323
 72
     1
 10
-76.65831403630829
 20
-18.39381392395323
 11
-76.56669107446501
 21
-18.97959309962485
 72
     1
 10
-76.56669107446501
 20
-18.97959309962485
 11
-75.90956436610952
 21
-37.79719007829485
 72
     1
 10
-75.90956436610952
 20
-37.79719007829485
 11
-75.76049755512904
 21
-38.74730256039745
 72
     1
 10
-75.76049755512904
 20
-38.74730256039745
 11
-75.38858400147408
 21
-39.63421571927537
 72
     1
 10
-75.38858400147408
 20
-39.63421571927537
 11
-74.81539815568315
 21
-40.40648032999365
 72
     1
 10
-74.81539815568315
 20
-40.40648032999365
 11
-74.07419013611839
 21
-41.01929785137826
 72
     1
 10
-74.07419013611839
 20
-41.01929785137826
 11
-73.2079569123706
 21
-41.43711915870791
 72
     1
 10
-73.2079569123706
 20
-41.43711915870791
 11
-72.26694814657226
 21
-41.63570747929719
 72
     1
 10
-72.26694814657226
 20
-41.63570747929719
 11
-67.45069991052034
 21
-42.07912565669679
 72
     1
 10
-67.45069991052034
 20
-42.07912565669679
 11
-66.4522415812657
 21
-42.2899029289288
 72
     1
 10
-66.4522415812657
 20
-42.2899029289288
 11
-65.36899095665339
 21
-42.81265194013911
 72
     1
 10
-65.36899095665339
 20
-42.81265194013911
 11
-64.44224383214276
 21
-43.57935801919134
 72
     1
 10
-64.44224383214276
 20
-43.57935801919134
 11
-63.72581552784055
 21
-44.54549927658542
 72
     1
 10
-63.72581552784055
 20
-44.54549927658542
 11
-63.26130835090264
 21
-45.65497281255525
 72
     1
 10
-63.26130835090264
 20
-45.65497281255525
 11
-63.07569578930352
 21
-46.8433525588616
 72
     1
 10
-63.07569578930352
 20
-46.8433525588616
 11
-62.94025827062299
 21
-50.72164330381569
 72
     1
 10
-62.94025827062299
 20
-50.72164330381569
 11
-62.41696284321685
 21
-56.15652708345137
 72
     1
 10
-62.41696284321685
 20
-56.15652708345137
 11
-61.26652905590485
 21
-61.41376808469381
 72
     1
 10
-61.26652905590485
 20
-61.41376808469381
 11
-59.47378581573467
 21
-66.52957406560531
 72
     1
 10
-59.47378581573467
 20
-66.52957406560531
 11
-57.08424640156406
 21
-71.39532175199768
 72
     1
 10
-57.08424640156406
 20
-71.39532175199768
 11
-54.12003382635686
 21
-75.93391657512203
 72
     1
 10
-54.12003382635686
 20
-75.93391657512203
 11
-50.63614779484353
 21
-80.08698017672173
 72
     1
 10
-50.63614779484353
 20
-80.08698017672173
 11
-46.6725072246107
 21
-83.78494618380072
 72
     1
 10
-46.6725072246107
 20
-83.78494618380072
 11
-42.29647749005359
 21
-86.98428407183
 72
     1
 10
-42.29647749005359
 20
-86.98428407183
 11
-37.56345654038478
 21
-89.62699325929341
 72
     1
 10
-37.56345654038478
 20
-89.62699325929341
 11
-32.54926556873814
 21
-91.68691754415538
 72
     1
 10
-32.54926556873814
 20
-91.68691754415538
 11
-27.35997764834384
 21
-93.11288098105707
 72
     1
 10
-27.35997764834384
 20
-93.11288098105707
 11
-21.96023536660938
 21
-93.92194540154632
 72
     1
 10
-21.96023536660938
 20
-93.92194540154632
 11
53.95556143150172
 21
-100.5637101186518
 72
     1
 10
53.95556143150172
 20
-100.5637101186518
 11
115.7153577680477
 21
-101.5492644903424
 72
     1
 10
115.7153577680477
 20
-101.5492644903424
 11
122.1455390345044
 21
-101.6518764423538
 97
        0
 75
     0
 76
     2
 52
0.0
 41
1.0
 77
     0
 78
     1
 53
45.0
 43
-3161.701
 44
-2040.053
 45
-3.535533905932737
 46
3.535533905932737
 79
     0
 98
        1
 10
0.0
 20
0.0
  0
ARC
  5
126
330
78
100
AcDbEntity
  8
A-DETL-GENF-OTLN
 62
     7
100
AcDbCircle
 10
-90.14152577097002
 20
-4.991334502998153
 30
0.0
 40
4.9913344
100
AcDbArc
 50
42.99998345530365
 51
90.0
  0
LINE
  5
127
330
78
100
AcDbEntity
  8
A-DETL-GENF-OTLN
 62
     7
100
AcDbLine
 10
-90.14152577097002
 20
0.0
 30
0.0
 11
-114.8006932825469
 21
0.0
 31
0.0
  0
LINE
  5
128
330
78
100
AcDbEntity
  8
A-DETL-GENF-OTLN
 62
     7
100
AcDbLine
 10
-114.8006932825469
 20
0.0
 30
0.0
 11
-114.8006932825469
 21
-3.993067244806297
 31
0.0
  0
LINE
  5
129
330
78
100
AcDbEntity
  8
A-DETL-GENF-OTLN
 62
     7
100
AcDbLine
 10
-114.8006932825469
 20
-3.993067244806297
 30
0.0
 11
-90.79261548957811
 21
-3.993067244806297
 31
0.0
  0
ARC
  5
12A
330
78
100
AcDbEntity
  8
A-DETL-GENF-OTLN
 62
     7
100
AcDbCircle
 10
-90.79261396037646
 20
-6.488734822998609
 30
0.0
 40
2.495667200000014
100
AcDbArc
 50
42.99999999999815
 51
90.00003510756073
  0
LINE
  5
12B
330
78
100
AcDbEntity
  8
A-DETL-GENF-OTLN
 62
     7
100
AcDbLine
 10
-88.96739786914947
 20
-4.786693282468363
 30
0.0
 11
-77.23551717002873
 21
-17.3675955141016
 31
0.0
  0
ARC
  5
12C
330
78
100
AcDbEntity
  8
A-DETL-GENF-OTLN
 62
     7
100
AcDbCircle
 10
-79.06073336818415
 20
-19.06963647981137
 30
0.0
 40
2.495667200000013
100
AcDbArc
 50
2.06767377940059
 51
42.99998867426238
  0
LINE
  5
12D
330
78
100
AcDbEntity
  8
A-DETL-GENF-OTLN
 62
     7
100
AcDbLine
 10
-76.56669107446879
 20
-18.97959309962737
 30
0.0
 11
-75.90956693466205
 21
-37.79719044216108
 31
0.0
  0
ARC
  5
12E
330
78
100
AcDbEntity
  8
A-DETL-GENF-OTLN
 62
     7
100
AcDbCircle
 10
-71.9189293149575
 20
-37.65783403155003
 30
0.0
 40
3.993067520000025
100
AcDbArc
 50
182.0000000000032
 51
265.0000000000015
  0
LINE
  5
12F
330
78
100
AcDbEntity
  8
A-DETL-GENF-OTLN
 62
     7
100
AcDbLine
 10
-72.26694814657602
 20
-41.63570747929985
 30
0.0
 11
-67.62909231826779
 21
-42.04146584819773
 31
0.0
  0
ARC
  5
130
330
78
100
AcDbEntity
  8
A-DETL-GENF-OTLN
 62
     7
100
AcDbCircle
 10
-68.06411882001383
 20
-47.01380712565695
 30
0.0
 40
4.991334400000038
100
AcDbArc
 50
1.957037093988052
 51
84.99996559342232
  0
LINE
  5
131
330
78
100
AcDbEntity
  8
A-DETL-GENF-OTLN
 62
     7
100
AcDbLine
 10
-63.07569578930731
 20
-46.84335255886411
 30
0.0
 11
-62.94025827062672
 21
-50.72164330381816
 31
0.0
  0
ARC
  5
132
330
78
100
AcDbEntity
  8
A-DETL-GENF-OTLN
 62
     7
100
AcDbCircle
 10
-18.04502397572473
 20
-49.17087442730736
 30
0.0
 40
44.92200960000008
100
AcDbArc
 50
181.9783213136778
 51
265.0000000000014
  0
LINE
  5
133
330
78
100
AcDbEntity
  8
A-DETL-GENF-OTLN
 62
     7
100
AcDbLine
 10
-21.96023536661324
 20
-93.92194540154889
 30
0.0
 11
53.95556143150194
 21
-100.5637101186543
 31
0.0
  0
LINE
  5
134
330
78
100
AcDbEntity
  8
A-DETL-GENF-OTLN
 62
     7
100
AcDbLine
 10
53.95556143149778
 20
-100.5637101186543
 30
0.0
 11
122.1455390345004
 21
-101.6518764423563
 31
0.0
  0
LINE
  5
135
330
78
100
AcDbEntity
  8
A-DETL-GENF-OTLN
 62
     7
100
AcDbLine
 10
122.1455390345004
 20
-101.6518764423563
 30
0.0
 11
124.1689060687484
 21
-100.9517823190453
 31
0.0
  0
ARC
  5
136
330
78
100
AcDbEntity
  8
A-DETL-GENF-OTLN
 62
     7
100
AcDbCircle
 10
123.6768685523075
 20
-99.53753099740879
 30
0.0
 40
1.497400319999971
100
AcDbArc
 50
289.1834898348403
 51
359.0857583543323
  0
LINE
  5
137
330
78
100
AcDbEntity
  8
A-DETL-GENF-OTLN
 62
     7
100
AcDbLine
 10
125.1742391960147
 20
-99.5555102584267
 30
0.0
 11
125.1984264918519
 21
-98.03554101961164
 31
0.0
  0
LINE
  5
138
330
78
100
AcDbEntity
  8
A-DETL-GENF-OTLN
 62
     7
100
AcDbLine
 10
125.1984264918519
 20
-98.03554101961164
 30
0.0
 11
57.33388736022905
 21
-96.85095853700659
 31
0.0
  0
LINE
  5
139
330
78
100
AcDbEntity
  8
A-DETL-GENF-OTLN
 62
     7
100
AcDbLine
 10
57.33388736023009
 20
-96.85095853700662
 30
0.0
 11
-21.61221717844
 21
-89.94407241853698
 31
0.0
  0
ARC
  5
13A
330
78
100
AcDbEntity
  8
A-DETL-GENF-OTLN
 62
     7
100
AcDbCircle
 10
-18.04502397572474
 20
-49.17087442730738
 30
0.0
 40
40.92894207999992
100
AcDbArc
 50
181.990896731135
 51
264.9999991593824
  0
LINE
  5
13B
330
78
100
AcDbEntity
  8
A-DETL-GENF-OTLN
 62
     7
100
AcDbLine
 10
-58.94925968077809
 20
-50.59277497707381
 30
0.0
 11
-59.08509585933172
 21
-46.70296225816882
 31
0.0
  0
ARC
  5
13C
330
78
100
AcDbEntity
  8
A-DETL-GENF-OTLN
 62
     7
100
AcDbCircle
 10
-68.06411882001384
 20
-47.01380712565696
 30
0.0
 40
8.984401920000044
100
AcDbArc
 50
1.982731215843596
 51
85.00000000000175
  0
LINE
  5
13D
330
78
100
AcDbEntity
  8
A-DETL-GENF-OTLN
 62
     7
100
AcDbLine
 10
-67.28107640205371
 20
-38.06359282909398
 30
0.0
 11
-70.15926791702259
 21
-37.8117850058934
 31
0.0
  0
ARC
  5
13E
330
78
100
AcDbEntity
  8
A-DETL-GENF-OTLN
 62
     7
100
AcDbCircle
 10
-69.98525769704248
 20
-35.82284818248719
 30
0.0
 40
1.996533759999976
100
AcDbArc
 50
181.9442484871748
 51
264.9999772589794
  0
LINE
  5
13F
330
78
100
AcDbEntity
  8
A-DETL-GENF-OTLN
 62
     7
100
AcDbLine
 10
-71.98064207802907
 20
-35.89058463452306
 30
0.0
 11
-72.6606225528717
 21
-16.41862227872298
 31
0.0
  0
LINE
  5
140
330
78
100
AcDbEntity
  8
A-DETL-GENF-OTLN
 62
     7
100
AcDbLine
 10
-72.6606225528717
 20
-16.41862227872298
 30
0.0
 11
-86.49109235412607
 21
-1.587252241572966
 31
0.0
  0
HATCH
  5
141
330
78
100
AcDbEntity
  8
A-DETL-GENF-OTLN
100
AcDbHatch
 10
0.0
 20
0.0
 30
0.0
210
0.0
220
0.0
230
1.0
  2
FP_1
 70
     0
 71
     0
 91
        1
 92
        1
 93
       10
 72
     1
 10
51.41074437950543
 20
-6.919498543718071
 11
59.14731350277341
 21
-6.919498543718071
 72
     1
 10
59.14731350277341
 20
-6.919498543718071
 11
60.14557868698493
 21
-5.921231500088801
 72
     1
 10
60.14557868698493
 20
-5.921231500088801
 11
75.36914598892597
 21
-5.921231500088801
 72
     1
 10
75.36914598892597
 20
-5.921231500088801
 11
84.35355142612491
 21
3.063170033152214
 72
     1
 10
84.35355142612491
 20
3.063170033152215
 11
75.11958248199866
 21
3.063170033152215
 72
     1
 10
75.11958248199866
 20
3.063170033152215
 11
75.11958248199866
 21
-1.429030733467785
 72
     1
 10
75.11958248199866
 20
-1.429030733467785
 11
55.40381255401994
 21
-1.429030733467785
 72
     1
 10
55.40381255401994
 20
-1.429030733467785
 11
55.40381255401994
 21
-4.423830934645741
 72
     1
 10
55.40381255401994
 20
-4.423830934645741
 11
51.41074437950543
 21
-4.423830934645741
 72
     1
 10
51.41074437950543
 20
-4.423830934645741
 11
51.41074437950543
 21
-6.919498543718071
 97
        0
 75
     0
 76
     2
 52
0.0
 41
1.0
 77
     0
 78
     1
 53
45.0
 43
-3161.701
 44
-2040.053
 45
-3.535533905932737
 46
3.535533905932737
 79
     0
 98
        1
 10
0.0
 20
0.0
  0
LINE
  5
142
330
78
100
AcDbEntity
  8
A-DETL-GENF-OTLN
 62
     7
100
AcDbLine
 10
59.14731350276952
 20
-6.919498543720693
 30
0.0
 11
60.14557868698104
 21
-5.92123150009138
 31
0.0
  0
LINE
  5
143
330
78
100
AcDbEntity
  8
A-DETL-GENF-OTLN
 62
     7
100
AcDbLine
 10
60.14557868698104
 20
-5.92123150009138
 30
0.0
 11
75.36914598892192
 21
-5.92123150009138
 31
0.0
  0
LINE
  5
144
330
78
100
AcDbEntity
  8
A-DETL-GENF-OTLN
 62
     7
100
AcDbLine
 10
75.36914598892192
 20
-5.92123150009138
 30
0.0
 11
84.35355142612097
 21
3.063170033149623
 31
0.0
  0
LINE
  5
145
330
78
100
AcDbEntity
  8
A-DETL-GENF-OTLN
 62
     7
100
AcDbLine
 10
84.35355142612097
 20
3.063170033149619
 30
0.0
 11
75.11958248199469
 21
3.063170033149619
 31
0.0
  0
LINE
  5
146
330
78
100
AcDbEntity
  8
A-DETL-GENF-OTLN
 62
     7
100
AcDbLine
 10
75.11958248199469
 20
3.063170033149619
 30
0.0
 11
75.11958248199469
 21
-1.429030733470426
 31
0.0
  0
LINE
  5
147
330
78
100
AcDbEntity
  8
A-DETL-GENF-OTLN
 62
     7
100
AcDbLine
 10
75.11958248199469
 20
-1.429030733470426
 30
0.0
 11
55.40381255401598
 21
-1.429030733470426
 31
0.0
  0
LINE
  5
148
330
78
100
AcDbEntity
  8
A-DETL-GENF-OTLN
 62
     7
100
AcDbLine
 10
55.40381255401598
 20
-1.429030733470426
 30
0.0
 11
55.40381255401598
 21
-4.423830934648321
 31
0.0
  0
LINE
  5
149
330
78
100
AcDbEntity
  8
A-DETL-GENF-OTLN
 62
     7
100
AcDbLine
 10
55.40381255401598
 20
-4.423830934648321
 30
0.0
 11
51.41074437950147
 21
-4.423830934648321
 31
0.0
  0
LINE
  5
14A
330
78
100
AcDbEntity
  8
A-DETL-GENF-OTLN
 62
     7
100
AcDbLine
 10
51.41074437950147
 20
-4.423830934648321
 30
0.0
 11
51.41074437950147
 21
-6.919498543720693
 31
0.0
  0
LINE
  5
14B
330
78
100
AcDbEntity
  8
A-DETL-GENF-OTLN
 62
     7
100
AcDbLine
 10
51.41074437950147
 20
-6.919498543720693
 30
0.0
 11
59.14731350276952
 21
-6.919498543720693
 31
0.0
  0
HATCH
  5
14C
330
78
100
AcDbEntity
  8
A-DETL-GENF-OTLN
100
AcDbHatch
 10
0.0
 20
0.0
 30
0.0
210
0.0
220
0.0
230
1.0
  2
FP_1
 70
     0
 71
     0
 91
        1
 92
        1
 93
       10
 72
     1
 10
-59.14731350276569
 20
-6.919498543718071
 11
-51.41074437949757
 21
-6.919498543718071
 72
     1
 10
-51.41074437949757
 20
-6.919498543718071
 11
-51.41074437949757
 21
-4.423830934645741
 72
     1
 10
-51.41074437949757
 20
-4.423830934645741
 11
-55.40381255401222
 21
-4.423830934645741
 72
     1
 10
-55.40381255401222
 20
-4.423830934645741
 11
-55.40381255401222
 21
-1.429030733467785
 72
     1
 10
-55.40381255401222
 20
-1.429030733467785
 11
-75.11958248199094
 21
-1.429030733467785
 72
     1
 10
-75.11958248199094
 20
-1.429030733467785
 11
-75.11958248199094
 21
3.063170033152215
 72
     1
 10
-75.11958248199094
 20
3.063170033152215
 11
-84.35355142611719
 21
3.063170033152215
 72
     1
 10
-84.35355142611719
 20
3.063170033152215
 11
-75.36914598891812
 21
-5.9212315000888
 72
     1
 10
-75.36914598891812
 20
-5.921231500088801
 11
-60.14557868697721
 21
-5.921231500088801
 72
     1
 10
-60.14557868697721
 20
-5.921231500088801
 11
-59.14731350276569
 21
-6.919498543718071
 97
        0
 75
     0
 76
     2
 52
0.0
 41
1.0
 77
     0
 78
     1
 53
45.0
 43
-3161.701
 44
-2040.053
 45
-3.535533905932737
 46
3.535533905932737
 79
     0
 98
        1
 10
0.0
 20
0.0
  0
LINE
  5
14D
330
78
100
AcDbEntity
  8
A-DETL-GENF-OTLN
 62
     7
100
AcDbLine
 10
-59.14731350276952
 20
-6.919498543720693
 30
0.0
 11
-51.41074437950147
 21
-6.919498543720693
 31
0.0
  0
LINE
  5
14E
330
78
100
AcDbEntity
  8
A-DETL-GENF-OTLN
 62
     7
100
AcDbLine
 10
-51.41074437950147
 20
-6.919498543720693
 30
0.0
 11
-51.41074437950147
 21
-4.423830934648321
 31
0.0
  0
LINE
  5
14F
330
78
100
AcDbEntity
  8
A-DETL-GENF-OTLN
 62
     7
100
AcDbLine
 10
-51.41074437950147
 20
-4.423830934648321
 30
0.0
 11
-55.40381255401598
 21
-4.423830934648321
 31
0.0
  0
LINE
  5
150
330
78
100
AcDbEntity
  8
A-DETL-GENF-OTLN
 62
     7
100
AcDbLine
 10
-55.40381255401598
 20
-4.423830934648321
 30
0.0
 11
-55.40381255401598
 21
-1.429030733470426
 31
0.0
  0
LINE
  5
151
330
78
100
AcDbEntity
  8
A-DETL-GENF-OTLN
 62
     7
100
AcDbLine
 10
-55.40381255401598
 20
-1.429030733470426
 30
0.0
 11
-75.11958248199469
 21
-1.429030733470426
 31
0.0
  0
LINE
  5
152
330
78
100
AcDbEntity
  8
A-DETL-GENF-OTLN
 62
     7
100
AcDbLine
 10
-75.11958248199469
 20
-1.429030733470426
 30
0.0
 11
-75.11958248199469
 21
3.063170033149619
 31
0.0
  0
LINE
  5
153
330
78
100
AcDbEntity
  8
A-DETL-GENF-OTLN
 62
     7
100
AcDbLine
 10
-75.11958248199469
 20
3.063170033149619
 30
0.0
 11
-84.35355142612097
 21
3.063170033149619
 31
0.0
  0
LINE
  5
154
330
78
100
AcDbEntity
  8
A-DETL-GENF-OTLN
 62
     7
100
AcDbLine
 10
-84.35355142612097
 20
3.063170033149623
 30
0.0
 11
-75.36914598892192
 21
-5.92123150009138
 31
0.0
  0
LINE
  5
155
330
78
100
AcDbEntity
  8
A-DETL-GENF-OTLN
 62
     7
100
AcDbLine
 10
-75.36914598892192
 20
-5.92123150009138
 30
0.0
 11
-60.14557868698104
 21
-5.92123150009138
 31
0.0
  0
LINE
  5
156
330
78
100
AcDbEntity
  8
A-DETL-GENF-OTLN
 62
     7
100
AcDbLine
 10
-60.14557868698104
 20
-5.92123150009138
 30
0.0
 11
-59.14731350276952
 21
-6.919498543720693
 31
0.0
  0
LINE
  5
157
330
78
100
AcDbEntity
  8
A-DETL-GENF-OTLN
 62
     7
100
AcDbLine
 10
-65.78047400000298
 20
-38.32447779617832
 30
0.0
 11
62.25972346409888
 21
-38.32447779617872
 31
0.0
  0
ENDBLK
  5
158
330
78
100
AcDbEntity
  8
0
100
AcDbBlockEnd
  0
ENDSEC
  0
SECTION
  2
ENTITIES
  0
INSERT
  5
73
330
2
100
AcDbEntity
  8
0
370
     5
100
AcDbBlockReference
  2
Viking_Roofspec Revit Components_rvt-1-Drains Side Exit - 80mmø Overflow
 10
0.0
 20
0.0
 30
0.0
1001
REVIT
1002
{
1070
     1
1000
2705_2705
1002
}
1002
{
1070
     5
1000
2705_2704
1002
}
1002
{
1070
     2
1000
2705_-2001352
1002
}
  0
ENDSEC
  0
SECTION
  2
OBJECTS
  0
DICTIONARY
  5
9
330
0
100
AcDbDictionary
281
     1
  3
ACAD_COLOR
350
3E
  3
ACAD_GROUP
350
35
  3
ACAD_LAYOUT
350
16
  3
ACAD_MATERIAL
350
B
  3
ACAD_MLEADERSTYLE
350
41
  3
ACAD_MLINESTYLE
350
36
  3
ACAD_PLOTSETTINGS
350
37
  3
ACAD_PLOTSTYLENAME
350
8
  3
ACAD_SCALELIST
350
3F
  3
ACAD_TABLESTYLE
350
40
  3
ACAD_VISUALSTYLE
350
2B
  3
ACDB_RECOMPOSE_DATA
350
170
  3
AcDbVariableDictionary
350
42
  0
DICTIONARY
  5
1E
330
1D
100
AcDbDictionary
280
     1
281
     1
  3
ACAD_LAYERSTATES
360
1F
  0
DICTIONARY
  5
6
330
5
100
AcDbDictionary
280
     1
281
     1
  0
DICTIONARY
  5
3
330
2
100
AcDbDictionary
280
     1
281
     1
  3
ACAD_SORTENTS
360
16C
  0
DICTIONARY
  5
3E
102
{ACAD_REACTORS
330
9
102
}
330
9
100
AcDbDictionary
281
     1
  0
DICTIONARY
  5
35
102
{ACAD_REACTORS
330
9
102
}
330
9
100
AcDbDictionary
281
     1
  0
DICTIONARY
  5
16
102
{ACAD_REACTORS
330
9
102
}
330
9
100
AcDbDictionary
281
     1
  3
Layout1
350
1C
  3
Model
350
15
  0
DICTIONARY
  5
B
102
{ACAD_REACTORS
330
9
102
}
330
9
100
AcDbDictionary
281
     1
  3
ByBlock
350
3B
  3
ByLayer
350
38
  3
Global
350
A
  0
DICTIONARY
  5
41
102
{ACAD_REACTORS
330
9
102
}
330
9
100
AcDbDictionary
281
     1
  0
DICTIONARY
  5
36
102
{ACAD_REACTORS
330
9
102
}
330
9
100
AcDbDictionary
281
     1
  3
Standard
350
4D
  0
DICTIONARY
  5
37
102
{ACAD_REACTORS
330
9
102
}
330
9
100
AcDbDictionary
281
     1
  0
ACDBDICTIONARYWDFLT
  5
8
102
{ACAD_REACTORS
330
9
102
}
330
9
100
AcDbDictionary
281
     1
  3
Normal
350
7
100
AcDbDictionaryWithDefault
340
7
  0
DICTIONARY
  5
3F
102
{ACAD_REACTORS
330
9
102
}
330
9
100
AcDbDictionary
281
     1
  3
*A1
350
52
  3
*A10
350
53
  3
*A11
350
54
  3
*A12
350
55
  3
*A13
350
56
  3
*A14
350
57
  3
*A15
350
58
  3
*A16
350
59
  3
*A2
350
5A
  3
*A3
350
5B
  3
*A4
350
5C
  3
*A5
350
5D
  3
*A6
350
5E
  3
*A7
350
5F
  3
*A8
350
60
  3
*A9
350
61
  3
A0
350
62
  3
A1
350
63
  3
A2
350
64
  3
A3
350
65
  3
A4
350
66
  3
A5
350
67
  3
A6
350
68
  3
A7
350
69
  3
A8
350
6A
  3
A9
350
6B
  3
B0
350
6C
  3
B1
350
6D
  3
B2
350
6E
  3
B3
350
6F
  3
B4
350
70
  3
B5
350
71
  3
B6
350
72
  0
DICTIONARY
  5
40
102
{ACAD_REACTORS
330
9
102
}
330
9
100
AcDbDictionary
281
     1
  3
Standard
350
4E
  0
DICTIONARY
  5
2B
102
{ACAD_REACTORS
330
9
102
}
330
9
100
AcDbDictionary
281
     1
  3
2dWireframe
350
2A
  3
Realistic
350
50
  3
Wireframe
350
51
  0
XRECORD
  5
170
102
{ACAD_REACTORS
330
9
102
}
330
9
100
AcDbXrecord
280
     1
 90
        1
330
4E
  0
DICTIONARY
  5
42
102
{ACAD_REACTORS
330
9
102
}
330
9
100
AcDbDictionary
281
     1
  3
CANNOSCALE
350
43
  3
CMLEADERSTYLE
350
44
  3
CTABLESTYLE
350
45
  3
CVIEWDETAILSTYLE
350
46
  3
CVIEWSECTIONSTYLE
350
47
  3
DIMASSOC
350
48
  3
FIELDEVAL
350
49
  3
HIDETEXT
350
4A
  3
LAYEREVAL
350
4B
  3
LAYERNOTIFY
350
4C
  0
DICTIONARY
  5
1F
102
{ACAD_REACTORS
330
1E
102
}
330
1E
100
AcDbDictionary
281
     1
  0
SORTENTSTABLE
  5
16C
102
{ACAD_REACTORS
330
3
102
}
330
3
100
AcDbSortentsTable
330
2
  0
LAYOUT
  5
1C
102
{ACAD_REACTORS
330
16
102
}
330
16
100
AcDbPlotSettings
  1
dwf_port
  2
DWF6 ePlot.pc3
  4
ISO_full_bleed_A4_(210.00_x_297.00_MM)
  6

 40
0.7937499880790711
 41
0.7937499880790711
 42
0.7937469482421875
 43
0.79376220703125
 44
210.0
 45
297.0
 46
0.0
 47
0.0
 48
0.0
 49
0.0
140
0.0
141
0.0
142
1.0
143
1.0
 70
   688
 72
     1
 73
     0
 74
     5
  7
branz.ctb
 75
    16
147
1.0
 76
     0
 77
     2
 78
   300
148
0.0
149
0.0
100
AcDbLayout
  1
Layout1
 70
     1
 71
     1
 10
-0.7937499880790711
 20
-0.7937499880790711
 11
209.2062500119209
 21
296.2062500119209
 12
0.0
 22
0.0
 32
0.0
 14
0.0010420625153245
 24
0.0014770624390508
 34
0.0
 15
208.4114610011634
 25
295.4110107424506
 35
0.0
146
0.0
 13
0.0
 23
0.0
 33
0.0
 16
1.0
 26
0.0
 36
0.0
 17
0.0
 27
1.0
 37
0.0
 76
     0
330
19
1001
ACAD_PSEXT
1000
DWF6 ePlot.pc3
1000
DWF6 ePlot
1000
File
1000

1070
     0
  0
LAYOUT
  5
15
102
{ACAD_XDICTIONARY
360
17
102
}
102
{ACAD_REACTORS
330
16
102
}
330
16
100
AcDbPlotSettings
  1

  2
none_device
  4
ISO_A4_(210.00_x_297.00_MM)
  6

 40
7.5
 41
20.0
 42
7.5
 43
20.0
 44
210.0
 45
297.0
 46
11.54999923706054
 47
-13.65000009536743
 48
0.0
 49
0.0
140
0.0
141
0.0
142
1.0
143
8.704084754739808
 70
 11952
 72
     1
 73
     0
 74
     0
  7

 75
     0
147
0.1148885871608098
 76
     0
 77
     2
 78
   300
148
0.0
149
0.0
100
AcDbLayout
  1
Model
 70
     1
 71
     0
 10
0.0
 20
0.0
 11
12.0
 21
9.0
 12
0.0
 22
0.0
 32
0.0
 14
0.0
 24
0.0
 34
0.0
 15
0.0
 25
0.0
 35
0.0
146
0.0
 13
0.0
 23
0.0
 33
0.0
 16
1.0
 26
0.0
 36
0.0
 17
0.0
 27
1.0
 37
0.0
 76
     0
330
2
331
29
1001
ACAD_PSEXT
1000
None
1000
None
1000
Not applicable
1000
The layout will not be plotted unless a new plotter configuration name is selected.
1070
     0
  0
MATERIAL
  5
3B
102
{ACAD_XDICTIONARY
360
3C
102
}
102
{ACAD_REACTORS
330
B
102
}
330
B
100
AcDbMaterial
  1
ByBlock
 94
       63
  0
MATERIAL
  5
38
102
{ACAD_XDICTIONARY
360
39
102
}
102
{ACAD_REACTORS
330
B
102
}
330
B
100
AcDbMaterial
  1
ByLayer
 94
       63
  0
MATERIAL
  5
A
102
{ACAD_XDICTIONARY
360
C
102
}
102
{ACAD_REACTORS
330
B
102
}
330
B
100
AcDbMaterial
  1
Global
 43
0.0007999999797903
 43
0.0
 43
0.0
 43
0.0
 43
0.0
 43
0.0007999999797903
 43
0.0
 43
0.0
 43
0.0
 43
0.0
 43
1.0
 43
0.0
 43
0.0
 43
0.0
 43
0.0
 43
1.0
 49
0.0007999999797903
 49
0.0
 49
0.0
 49
0.0
 49
0.0
 49
0.0007999999797903
 49
0.0
 49
0.0
 49
0.0
 49
0.0
 49
1.0
 49
0.0
 49
0.0
 49
0.0
 49
0.0
 49
1.0
142
0.0007999999797903
142
0.0
142
0.0
142
0.0
142
0.0
142
0.0007999999797903
142
0.0
142
0.0
142
0.0
142
0.0
142
1.0
142
0.0
142
0.0
142
0.0
142
0.0
142
1.0
144
0.0007999999797903
144
0.0
144
0.0
144
0.0
144
0.0
144
0.0007999999797903
144
0.0
144
0.0
144
0.0
144
0.0
144
1.0
144
0.0
144
0.0
144
0.0
144
0.0
144
1.0
 94
       63
1001
ACAD
1070
    -1
1070
     3
1070
     0
1000

1071
        0
1070
     0
  0
MLINESTYLE
  5
4D
102
{ACAD_REACTORS
330
36
102
}
330
36
100
AcDbMlineStyle
  2
STANDARD
 70
     0
  3

 62
   256
 51
90.0
 52
90.0
 71
     2
 49
0.5
 62
   256
  6
BYLAYER
 49
-0.5
 62
   256
  6
BYLAYER
  0
ACDBPLACEHOLDER
  5
7
102
{ACAD_REACTORS
330
8
102
}
330
8
  0
SCALE
  5
52
102
{ACAD_REACTORS
330
3F
102
}
330
3F
100
AcDbScale
 70
     0
300
1/128" = 1'-0"_XREF
140
0.0078125
141
12.0
290
     0
  0
SCALE
  5
53
102
{ACAD_REACTORS
330
3F
102
}
330
3F
100
AcDbScale
 70
     0
300
1/2" = 1'-0"_XREF
140
0.5
141
12.0
290
     0
  0
SCALE
  5
54
102
{ACAD_REACTORS
330
3F
102
}
330
3F
100
AcDbScale
 70
     0
300
3/4" = 1'-0"_XREF
140
0.75
141
12.0
290
     0
  0
SCALE
  5
55
102
{ACAD_REACTORS
330
3F
102
}
330
3F
100
AcDbScale
 70
     0
300
1" = 1'-0"_XREF
140
1.0
141
12.0
290
     0
  0
SCALE
  5
56
102
{ACAD_REACTORS
330
3F
102
}
330
3F
100
AcDbScale
 70
     0
300
1-1/2" = 1'-0"_XREF
140
1.5
141
12.0
290
     0
  0
SCALE
  5
57
102
{ACAD_REACTORS
330
3F
102
}
330
3F
100
AcDbScale
 70
     0
300
3" = 1'-0"_XREF
140
3.0
141
12.0
290
     0
  0
SCALE
  5
58
102
{ACAD_REACTORS
330
3F
102
}
330
3F
100
AcDbScale
 70
     0
300
6" = 1'-0"_XREF
140
6.0
141
12.0
290
     0
  0
SCALE
  5
59
102
{ACAD_REACTORS
330
3F
102
}
330
3F
100
AcDbScale
 70
     0
300
1'-0" = 1'-0"_XREF
140
12.0
141
12.0
290
     0
  0
SCALE
  5
5A
102
{ACAD_REACTORS
330
3F
102
}
330
3F
100
AcDbScale
 70
     0
300
1/64" = 1'-0"_XREF
140
0.015625
141
12.0
290
     0
  0
SCALE
  5
5B
102
{ACAD_REACTORS
330
3F
102
}
330
3F
100
AcDbScale
 70
     0
300
1/32" = 1'-0"_XREF
140
0.03125
141
12.0
290
     0
  0
SCALE
  5
5C
102
{ACAD_REACTORS
330
3F
102
}
330
3F
100
AcDbScale
 70
     0
300
1/16" = 1'-0"_XREF
140
0.0625
141
12.0
290
     0
  0
SCALE
  5
5D
102
{ACAD_REACTORS
330
3F
102
}
330
3F
100
AcDbScale
 70
     0
300
3/32" = 1'-0"_XREF
140
0.09375
141
12.0
290
     0
  0
SCALE
  5
5E
102
{ACAD_REACTORS
330
3F
102
}
330
3F
100
AcDbScale
 70
     0
300
1/8" = 1'-0"_XREF
140
0.125
141
12.0
290
     0
  0
SCALE
  5
5F
102
{ACAD_REACTORS
330
3F
102
}
330
3F
100
AcDbScale
 70
     0
300
3/16" = 1'-0"_XREF
140
0.1875
141
12.0
290
     0
  0
SCALE
  5
60
102
{ACAD_REACTORS
330
3F
102
}
330
3F
100
AcDbScale
 70
     0
300
1/4" = 1'-0"_XREF
140
0.25
141
12.0
290
     0
  0
SCALE
  5
61
102
{ACAD_REACTORS
330
3F
102
}
330
3F
100
AcDbScale
 70
     0
300
3/8" = 1'-0"_XREF
140
0.375
141
12.0
290
     0
  0
SCALE
  5
62
102
{ACAD_REACTORS
330
3F
102
}
330
3F
100
AcDbScale
 70
     0
300
1:1
140
1.0
141
1.0
290
     1
  0
SCALE
  5
63
102
{ACAD_REACTORS
330
3F
102
}
330
3F
100
AcDbScale
 70
     0
300
1:2
140
1.0
141
2.0
290
     0
  0
SCALE
  5
64
102
{ACAD_REACTORS
330
3F
102
}
330
3F
100
AcDbScale
 70
     0
300
1:4
140
1.0
141
4.0
290
     0
  0
SCALE
  5
65
102
{ACAD_REACTORS
330
3F
102
}
330
3F
100
AcDbScale
 70
     0
300
1:5
140
1.0
141
5.0
290
     0
  0
SCALE
  5
66
102
{ACAD_REACTORS
330
3F
102
}
330
3F
100
AcDbScale
 70
     0
300
1:8
140
1.0
141
8.0
290
     0
  0
SCALE
  5
67
102
{ACAD_REACTORS
330
3F
102
}
330
3F
100
AcDbScale
 70
     0
300
1:10
140
1.0
141
10.0
290
     0
  0
SCALE
  5
68
102
{ACAD_REACTORS
330
3F
102
}
330
3F
100
AcDbScale
 70
     0
300
1:16
140
1.0
141
16.0
290
     0
  0
SCALE
  5
69
102
{ACAD_REACTORS
330
3F
102
}
330
3F
100
AcDbScale
 70
     0
300
1:20
140
1.0
141
20.0
290
     0
  0
SCALE
  5
6A
102
{ACAD_REACTORS
330
3F
102
}
330
3F
100
AcDbScale
 70
     0
300
1:30
140
1.0
141
30.0
290
     0
  0
SCALE
  5
6B
102
{ACAD_REACTORS
330
3F
102
}
330
3F
100
AcDbScale
 70
     0
300
1:40
140
1.0
141
40.0
290
     0
  0
SCALE
  5
6C
102
{ACAD_REACTORS
330
3F
102
}
330
3F
100
AcDbScale
 70
     0
300
1:50
140
1.0
141
50.0
290
     0
  0
SCALE
  5
6D
102
{ACAD_REACTORS
330
3F
102
}
330
3F
100
AcDbScale
 70
     0
300
1:100
140
1.0
141
100.0
290
     0
  0
SCALE
  5
6E
102
{ACAD_REACTORS
330
3F
102
}
330
3F
100
AcDbScale
 70
     0
300
2:1
140
2.0
141
1.0
290
     0
  0
SCALE
  5
6F
102
{ACAD_REACTORS
330
3F
102
}
330
3F
100
AcDbScale
 70
     0
300
4:1
140
4.0
141
1.0
290
     0
  0
SCALE
  5
70
102
{ACAD_REACTORS
330
3F
102
}
330
3F
100
AcDbScale
 70
     0
300
8:1
140
8.0
141
1.0
290
     0
  0
SCALE
  5
71
102
{ACAD_REACTORS
330
3F
102
}
330
3F
100
AcDbScale
 70
     0
300
10:1
140
10.0
141
1.0
290
     0
  0
SCALE
  5
72
102
{ACAD_REACTORS
330
3F
102
}
330
3F
100
AcDbScale
 70
     0
300
100:1
140
100.0
141
1.0
290
     0
  0
TABLESTYLE
  5
4E
102
{ACAD_XDICTIONARY
360
4F
102
}
102
{ACAD_REACTORS
330
40
102
}
330
40
100
AcDbTableStyle
280
     0
  3
Standard
 70
     0
 71
     0
 40
1.5
 41
1.5
280
     0
281
     0
  7
Standard
140
4.5
170
     2
 62
     0
 63
     7
283
     0
 90
      512
 91
        0
  1

274
    -2
284
     1
 64
     0
275
    -2
285
     1
 65
     0
276
    -2
286
     1
 66
     0
277
    -2
287
     1
 67
     0
278
    -2
288
     1
 68
     0
279
    -2
289
     1
 69
     0
  7
Standard
140
6.0
170
     5
 62
     0
 63
     7
283
     0
 90
      512
 91
        0
  1

274
    -2
284
     1
 64
     0
275
    -2
285
     1
 65
     0
276
    -2
286
     1
 66
     0
277
    -2
287
     1
 67
     0
278
    -2
288
     1
 68
     0
279
    -2
289
     1
 69
     0
  7
Standard
140
4.5
170
     5
 62
     0
 63
     7
283
     0
 90
      512
 91
        0
  1

274
    -2
284
     1
 64
     0
275
    -2
285
     1
 65
     0
276
    -2
286
     1
 66
     0
277
    -2
287
     1
 67
     0
278
    -2
288
     1
 68
     0
279
    -2
289
     1
 69
     0
  0
VISUALSTYLE
  5
2A
102
{ACAD_REACTORS
330
2B
102
}
330
2B
100
AcDbVisualStyle
  2
2dWireframe
 70
     4
177
     3
291
     0
 70
    58
 90
        0
176
     1
 90
        2
176
     1
 90
        1
176
     1
 90
        0
176
     1
 40
0.6
176
     1
 40
30.0
176
     1
 62
     7
420
 16777215
176
     1
 90
        1
176
     1
 90
        4
176
     1
 62
     7
176
     1
 62
   257
176
     1
 90
        1
176
     1
 90
        1
176
     1
 40
1.0
176
     1
 90
        0
176
     1
 62
   257
176
     1
 40
1.0
176
     1
 90
        1
176
     1
 90
        6
176
     1
 90
        2
176
     1
 62
     7
176
     1
 90
        5
176
     1
 90
        0
176
     1
 90
        0
176
     1
290
     0
176
     1
 90
        1
176
     1
 40
0.0
176
     1
 90
        0
176
     1
290
     1
176
     1
290
     1
176
     1
290
     0
176
     1
290
     0
176
     1
290
     0
176
     1
290
     0
176
     1
290
     0
176
     1
290
     0
176
     1
290
     0
176
     1
 90
       50
176
     1
 40
0.0
176
     1
 40
1.0
176
     1
 90
        0
176
     1
 62
    18
420
        0
176
     1
 90
       50
176
     1
 90
        3
176
     1
 62
     5
420
      255
176
     1
290
     0
176
     1
 90
       50
176
     1
 90
       50
176
     1
 90
       50
176
     1
290
     0
176
     1
 90
       50
176
     1
 62
   256
176
     0
 40
1.0
176
     0
 90
        2
176
     1
  1
strokes_ogs.tif
176
     1
290
     0
176
     1
 40
1.0
176
     1
 40
1.0
176
     1
  0
VISUALSTYLE
  5
50
102
{ACAD_REACTORS
330
2B
102
}
330
2B
100
AcDbVisualStyle
  2
Realistic
 70
     8
177
     3
291
     0
 70
    58
 90
        2
176
     1
 90
        3
176
     1
 90
        0
176
     1
 90
        2
176
     1
 40
0.6
176
     1
 40
30.0
176
     1
 62
     7
420
 16777215
176
     1
 90
        0
176
     1
 90
        0
176
     1
 62
     7
176
     1
 62
   257
176
     1
 90
        1
176
     1
 90
        1
176
     1
 40
1.0
176
     1
 90
        8
176
     1
 62
   257
176
     1
 40
1.0
176
     1
 90
        1
176
     1
 90
        6
176
     1
 90
        2
176
     1
 62
     7
176
     1
 90
        3
176
     1
 90
        0
176
     1
 90
        0
176
     1
290
     0
176
     1
 90
       13
176
     1
 40
0.0
176
     1
 90
        0
176
     1
290
     0
176
     1
290
     1
176
     1
290
     1
176
     1
290
     0
176
     1
290
     0
176
     1
290
     0
176
     1
290
     0
176
     1
290
     0
176
     1
290
     0
176
     1
 90
       50
176
     1
 40
0.0
176
     1
 40
1.0
176
     1
 90
        0
176
     1
 62
    18
420
        0
176
     1
 90
       50
176
     1
 90
        3
176
     1
 62
     5
420
      255
176
     1
290
     0
176
     1
 90
       50
176
     1
 90
       50
176
     1
 90
       50
176
     1
290
     0
176
     1
 90
       50
176
     1
 62
   256
176
     0
 40
1.0
176
     0
 90
        2
176
     1
  1
strokes_ogs.tif
176
     1
290
     0
176
     1
 40
1.0
176
     1
 40
1.0
176
     1
  0
VISUALSTYLE
  5
51
102
{ACAD_REACTORS
330
2B
102
}
330
2B
100
AcDbVisualStyle
  2
Wireframe
 70
     5
177
     3
291
     0
 70
    58
 90
        0
176
     1
 90
        2
176
     1
 90
        0
176
     1
 90
        0
176
     1
 40
0.6
176
     1
 40
30.0
176
     1
 62
     7
420
 16777215
176
     1
 90
        1
176
     1
 90
        4
176
     1
 62
     7
176
     1
 62
   257
176
     1
 90
        1
176
     1
 90
        1
176
     1
 40
1.0
176
     1
 90
        0
176
     1
 62
   257
176
     1
 40
1.0
176
     1
 90
        1
176
     1
 90
        6
176
     1
 90
        2
176
     1
 62
     7
176
     1
 90
        3
176
     1
 90
        0
176
     1
 90
        0
176
     1
290
     0
176
     1
 90
        1
176
     1
 40
0.0
176
     1
 90
        0
176
     1
290
     0
176
     1
290
     1
176
     1
290
     1
176
     1
290
     0
176
     1
290
     0
176
     1
290
     0
176
     1
290
     0
176
     1
290
     0
176
     1
290
     0
176
     1
 90
       50
176
     1
 40
0.0
176
     1
 40
1.0
176
     1
 90
        0
176
     1
 62
    18
420
        0
176
     1
 90
       50
176
     1
 90
        3
176
     1
 62
     5
420
      255
176
     1
290
     0
176
     1
 90
       50
176
     1
 90
       50
176
     1
 90
       50
176
     1
290
     0
176
     1
 90
       50
176
     1
 62
   256
176
     0
 40
1.0
176
     0
 90
        2
176
     1
  1
strokes_ogs.tif
176
     1
290
     0
176
     1
 40
1.0
176
     1
 40
1.0
176
     1
  0
DICTIONARYVAR
  5
43
102
{ACAD_REACTORS
330
42
102
}
330
42
100
DictionaryVariables
280
     0
  1
1:1
  0
DICTIONARYVAR
  5
44
102
{ACAD_REACTORS
330
42
102
}
330
42
100
DictionaryVariables
280
     0
  1
STANDARD
  0
DICTIONARYVAR
  5
45
102
{ACAD_REACTORS
330
42
102
}
330
42
100
DictionaryVariables
280
     0
  1
STANDARD
  0
DICTIONARYVAR
  5
46
102
{ACAD_REACTORS
330
42
102
}
330
42
100
DictionaryVariables
280
     0
  1

  0
DICTIONARYVAR
  5
47
102
{ACAD_REACTORS
330
42
102
}
330
42
100
DictionaryVariables
280
     0
  1

  0
DICTIONARYVAR
  5
48
102
{ACAD_REACTORS
330
42
102
}
330
42
100
DictionaryVariables
280
     0
  1
2
  0
DICTIONARYVAR
  5
49
102
{ACAD_REACTORS
330
42
102
}
330
42
100
DictionaryVariables
280
     0
  1
7
  0
DICTIONARYVAR
  5
4A
102
{ACAD_REACTORS
330
42
102
}
330
42
100
DictionaryVariables
280
     0
  1
1
  0
DICTIONARYVAR
  5
4B
102
{ACAD_REACTORS
330
42
102
}
330
42
100
DictionaryVariables
280
     0
  1
0
  0
DICTIONARYVAR
  5
4C
102
{ACAD_REACTORS
330
42
102
}
330
42
100
DictionaryVariables
280
     0
  1
0
  0
DICTIONARY
  5
17
330
15
100
AcDbDictionary
280
     1
281
     1
  0
DICTIONARY
  5
3C
330
3B
100
AcDbDictionary
280
     1
281
     1
  3
FBXASSET
360
3D
  0
DICTIONARY
  5
39
330
38
100
AcDbDictionary
280
     1
281
     1
  3
FBXASSET
360
3A
  0
DICTIONARY
  5
C
330
A
100
AcDbDictionary
280
     1
281
     1
  3
BUMPTILE
360
D
  3
DIFFUSETILE
360
E
  3
FBXASSET
360
F
  3
OPACITYTILE
360
10
  3
REFLECTIONTILE
360
11
  0
DICTIONARY
  5
4F
330
4E
100
AcDbDictionary
280
     1
281
     1
  3
ACAD_ROUNDTRIP_2008_TABLESTYLE_CELLSTYLEMAP
360
16F
  0
XRECORD
  5
3D
102
{ACAD_REACTORS
330
3C
102
}
330
3C
100
AcDbXrecord
280
     1
 70
     1
 90
429727718
  1
D62C5603-E3A1-4AEA-B7FB-FE5D8D0755AF
310
504B03040A0000080000CC70623B3DEE336E79000000790000001B0000006175746F6465736B2D64657369676E2D7061636B6167652E786D6C3C3F786D6C2076657273696F6E3D22312E302220656E636F64696E673D227574662D3822203F3E3C666F726D6174733E3C666F726D61743E687474703A2F2F736368656D612E
310
6175746F6465736B2E636F6D2F64657369676E2D7061636B6167652F323030393C2F666F726D61743E3C2F666F726D6174733E504B0304140006080800CC70623BD486FD9CA0000000F4000000130000005B436F6E74656E745F54797065735D2E786D6C7D8EC10E82300C865F65E91D8A1E8C310C0EEA1BF002731658846E
310
D98AC1B77784ABF1D8FE5FBFBF75BBCE937A534CCEB38643598122B6FEE978D0B0485F9C41B54DDD7D022595594E1A469170414C76A4D9A4D207E29CF43ECE46F218070CC6BECC4078ACAA135ACF422C856C0E68EA1BF5669944DDD7BCDE7B1F8E415D77AECB980613C2E4AC91FC167A2B244592486606FC29C8FD7F045B9A
310
EF7053A7E60B504B0304140006080800CC70623B853B8169EB0000007C01000008000000636F72652E786D6C8D90416EC3201045AF62CDB6C206821CC7C244919D9CA01740401C94182C03558F5F9C3852BBEB6A467FFE9B197D7EFC9E1EC5975982F5AE035262288C535E5B377690E21535501C055FBC8FBF6C503839990E
310
5619041F179FE64D52DE45E362569DD7661365082642A11EB9E920A89B99642953CC8E702F67A9EE7234257977194EC9EAE275C4EABCCF5EAD5940D4AC6F0E35A568B8F43562CD7046CD199FD07E60174276A7BE677B5EADB0E0D14EEFFB6A31321A0D82627C4084204C3F096B71DD52F6819B16635EADF63F509AF53FA164
310
5DDCD1EDDD17164090FCC8732078B56691CB33A85CD7DCC40F504B0304140006080800CC70623B55019EA25F0000007C00000007000000636E782E786D6C4DCB3B0E80201045D1AD90E915ED2CF8AC45050C11660C8261F98AB1B07AC9C97D42D718D865D3E909258CFD00CCE24AC6E326A164D74DC0B4128928FF32603847
310
2BA13128B1252AC747C6BAB984FC68F0B87FE8960A5C09FE86CFB69FBA01504B0304140006080800CC70623BDBABAAF470010000D40300000C0000006662782F636F72652E786D6CC553D16E823014FD95A6AF4B694182CC941A83FA05FB810A9511A125A5257EFE2E82712ECEB8A7F100CD39F7F69E734AF9FADC366850B6
310
AF8DCE7018308C942E4C59EB2AC3DE1D498AD15A706B8CFB56869196ADCAF00863C12B6B7C374385D14E6907A836A59A41D9F7CA615434B0C8705F7CAA5606D23BA8E84F41278B93AC54100640439DE0BDB320004D43C63716C7C399D30917DCFBBA9CD9BA8469F5B156168B24CED3F7248AC8769F27244EB73B92EED8862C
310
B7F13E0C179B3C8F979C8ECD82BBBABDAA2BAC924E9558448CBD9330242CFA08E3154B5651FCC6D215639C8EE5774DBE2B5F6CF2B5768B68963BB5F5588420E442FC700B1139D4CB01F450C1E918227C2E09DF070D8140C84E1E9AAB8F1340832A9CB13130A5F1376A908D57309505ECF2A0DF179C4E9D30F5B239B87E3823
310
7A79C6F31DE1A8A5AEC08474B03C7837EAE4938639B44E5932B833D2C6B6B279CDC613877FA26EE21F4A2A4C63EC7F29A2F301D1F9F7A0E37D145F504B0304140006080800CC70623B9C113CC27E0000009D0000000B0000006662782F636E782E786D6C4DCCDF0A83201C86E15B91DFB94BFB330DD428C8FB886521330DA7
310
6397BF1A1DECE883878F57749FCDA1B7892F1BBC047A23808C7F84D9FA55424E0BE6803A256208E9EF06C84F9B91703228B1C690F78B66B34CD9A5439DF5CF0BFBF65E35BCA1B8D6A5C6F540381E886698B5741C695F9503EBA150A2F8958E3DC3EA0B504B0304140006080800CC70623B7DF2F77C2A010000120200003100
310
00006662782F41393633353835312D344632462D344230382D423046372D3739314545314133324237412F636F72652E786D6C8D51DB8EC22014FC15C2939B0D2DB4B45643319AE817EC0F6041255A68B86CFCFC856D4D76DF7CE190393373060EDB3DC707F856CE6B6B7A480A0C81328395DA5C7B18C3057510EC3873D686
310
3F34088C18550F330C39BB3A1BA7051AAC09CA84841A2BD5020AEF55806078A44B0FFD7053A328440C89E1EFC52486BBB8AA8214A99D789CF9E05200300FC927E4FB4D5B375D43103D5527440FB843077C5AA3F5861C8F645F5787F59E95B390B318B55CE45AA638FAA2957BD7248B390B7A7CC51F9C124149C82B8C378810
310
84AB2F42B7B8DD56F413775B8C5999E9FF4471926F8AA236A1AE96B8B3CC434E5839373893369E1FAF30EA395917409EB7F26AF8801C171837A4A6AC9C89E9F9C9B1A58BA30FD6A5EF5DDDCF894B9AD9B6A59C957943A9FCAE2FD5BC4DFE03504B0304140006080800CC70623BAD7543B64E01000033030000300000006662
310
782F41393633353835312D344632462D344230382D423046372D3739314545314133324237412F636E782E786D6CD593CD6EC32010845F0571AD6CE3D48AD20813A9873E410FBD12D82434182C7EAAE6EDBB2424CD25871E7B41D6EC30B3FA84F9E67BB2E40B4234DE8DB46F1925E094D7C6ED479AD3AE5951B2113C789FEE
310
6C943839C1488B4C05DF079FE72A69D8C96C13AAD6B8631503449F83828872B949AC57D26200B826A308D316B4064D6E46FCDA41C05550DC9E483A00797BFD207EFB092A45DE9514C1BBD22178396BD39D891265658C238DEA00936C654E5E433CB65A26D9F6EDB5EBC14EBF49A45CB856E66048291F6939A9A81BB5C89177
310
38143CA680F4AA299D66A042CEB3354A2684DC9D8D178FE0D9B8B41CAAD720F880EE7EF93C0C18769E099ECC04D5A102C8049A8A05632F4DDF376CF1DE0F6BB65C2F8627B65A33C6BB62177CEBBDAD973006829F89F22E814B54F4BC2BE347F8AA8F681390B50FA73F804400B5F542E796F19FF974E7F78DB802FE05E20750
310
4B0304140006080800CC70623BE75B7789680500003C100000340000006662782F41393633353835312D344632462D344230382D423046372D3739314545314133324237412F6F626A656374732E786D6CAD575B8F9B3818FD2B887D06C22499CB8AA1CA655245D5B455A356FB305264C061D8018C6C3393D95FBFC7600890
310
A4CD5EF210B0B1BFEBF98E3F7B1FF6596ABC522E1296DF9BAE3D320D9A872C4AF2F8DE2CE5CEBA358D0FBEC719939D65A691938CDE9B6ADAF4BD98B3B2D05311DD91329583D9D5FC0F438434A7A611A644887B5384CF34233629258BA878B12322891DEFF6B66BD70BFB62634E8AE781D082709A4B588AF91C528CDA28B73F
310
1C998EEF39EABBEFA97FBD6A7C7E9553F9D3D79FE442923C3C523610337627CB87ABE99D359D4CC6D6E4FACAB5E6ABF9D2726FC6A3C5F56271377BB88362213924694B38DD99FE47C48627A1E7D49F5A8BB5E1A74C0A599ED3B0F21F1E56366B89112D681E218F0915D0D6F17AD41FBA2A369DCF6335D62ABBD39779D5DDD1
310
11D4D8DE3CBB96B2E04FB8202E41051754A1AA8E8F76B4C6DFE810B580B1547F4B84911149794252234D024EF8BBE963A95AE27B3D310A9D5C215C7960FAEE415ED75694C6AFB17BCACA5D99A60A9AA65F217B0BFC53292ACB92BF283FAD0D3621576592CB5BED907C2FA8E9DF794E35E97BEA31BED21FEB401ABB94C44839
310
DCACBF0E1C5DA8DA5B2F4DFFD32AD86F543D9E565E7056502E157C00AD2671CD534549AB752FCA9CDA00677A313F04E51B22FF19E57B300579E3C97EB29F682D92935CEC18CF901B7B54FD8C51F362B56FC72FE0B3C1EAE335EDCCBF5AEC39ADB17DC238973F804BA5E6F6BFE7AF1FB32E523BE9F3BD571418E3631DCA4D48
310
5250CF639223210A9446CA30052EDF057BD35F8329C1ECD84552BF0DC8D18BE7BCE23BFE6BD960AB4A7DE79923A103BEBD80F911CBAA2C60DB19B01CF164A5583B772EE6D3FFA56666CBCDA74DC97724A48F9A58967497E489C4D979006FD7A05E227A1EBDD0F737C623387A9C844D3709995625106D157315F8B8392CD4E0
310
A0B9A720C4BE9829CEF37EA1E13111214D53925356365ADA634861B52519DD27A00AEB808EAF0628E6F435519D446F45CF2C9CF5214F0A15B2F6D06B79DA3EE3CBF7F56780D2F4E7EF73A0F5E5B02A38D07DC852C6B7C1FBB6664213E0C39E3EBA7FF4E1AD23EA2829407C85E586727488B751B2DB9502BC7B228A3FD68B6E
310
A65A22397E690AA8D158D7E404EC8CDA235CC3B7D1898680131CEC2CDF2638C65196279577750F15884AEE19F94199155B92B13297978469D4F8D358DF0AEF7631E28DC8F0D9F437D5D39A83B2231A1D52D543813A824EF8D44BCFF2FA6A31BD1E8DAD87F1CCB526B3879935BF59CDADD5C37479BB1CDD4CA7B3556B516589
310
EF352754B706114D9C885EC9131DE6EFEB43D99AFE2391C2F958179413D7CFEF6B1B6DB1E7600F00DE6E5C67454A339A4BA2E0FBA85ED26F045D454F463DBFCE484C2F90F2E5E3666003662ED8F755951A7D1BECD5B30B550B2785C8E7320B7292A4838DDA71BBC863ED7613CAF659337A3354231D4FF4A182A54904C2898C
310
98B28C4AD0CE056CCF332A80986E571EE9DBC305BB5FEB7E509220A58D25CF042D712A806AC0AD0C657FDEF80D2D9CEAA2EE4D1C76F60BFE74219A06527D6F82DF6412526107381E55E353090704D085B52408A8913C4ED159D79BDA71BB4BC506F4831350EB6F975CD22D69BF7AC49B91A2C0A9DDA3D5CA36AD20FC478E37
310
E61844E2352865EBCB61A275A65283CAAA9DD27703B4102F5AF51EF5F573B75CBB5AD38BC845F7A49F82A0966A49C2E3EA5EA0ECD326CD965F1DB402C6FA8B51A4658C5C5E2EC9E214602E55810345408596591009A82E7E7FFACA19EEA299B14A0081A705CB3296EBC14CDF658DCD336EA6D1136881AAEB87B81AB9EE53D5
310
F5EB8BC8362082DA24122F98680A4E7930C01A0079749CEA14382A0783E5EBA5A10F8C098456A03D6A4AEB6BB881E2513747552A5DB22C7EDAF83BD5528081A365F7FF06504B0304140006080000CC70623B000000000000000000000000350000006662782F41393633353835312D344632462D344230382D423046372D37
310
39314545314133324237412F76657274696365732E62696E504B0304140006080800CC70623BF270F1330600000004000000360000006662782F41393633353835312D344632462D344230382D423046372D3739314545314133324237412F747269616E676C65732E62696E636660600000504B0304140006080000CC7062
310
3B000000000000000000000000370000006662782F41393633353835312D344632462D344230382D423046372D3739314545314133324237412F617474726962757465732E62696E504B0304140006080800CC70623B08DA0BD19000000041010000360000006662782F41393633353835312D344632462D344230382D4230
310
46372D3739314545314133324237412F6469726563746F72792E786D6C858F410AC3201045AF22B36F53E9A60B35CBEEBAE80D244E44489C6234F4F835464A48035D0DF398FF9F8AF63D0E6CC63039F212F8F9020C7D47C6792B21C5FE7403D62A1188E2E60C98D7234A5830286103A55745067B9D86B8A3CF9C7F90C11DE6
310
07FB144396D7B6A82D282E9A152AD114D5EF2CB866EEE831B8EEA07A7BB5A8D7D61A2BAAEB7FD5F70921FF497D00504B0304140006080800CC70623BEDD1DC58FD000000A00100003B0000006662782F41393633353835312D344632462D344230382D423046372D3739314545314133324237412F7265736F75726365732F
310
636F72652E786D6C8D504B6E833010BD0A9A6D65B00922041947112427E8052C33A156828DFCA97AFC9A40A576D7CDCCE87D344F8F9FBFE667F689CE6B6B3A6039850C8DB2A336530731DC4903D95970676DF82583CCC8193B5861107C72362E3BA4AC096842428D1D7107A5F7182053CF7474E0D507CE32973124857FE48B
310
540F3961CEF244279DE03EB81420DB9EAC1384436FA353E879B1B182C7A8C75DA3C7F453DF353A1075D537A7BA6464B8F535A99AE14A9A2BBD90E350DD183B5CFABE3AF262350B1EF4FC9351399401471025A527C218A1E53BAB5A5AB765F5469B96525EACF23FA6B88CFF34456DC2A1DCE36E360F82A5202F42F062ED2BAD
310
579969AFDD8A6F504B010214000A0000080000CC70623B3DEE336E79000000790000001B00000000000000000000000000000000006175746F6465736B2D64657369676E2D7061636B6167652E786D6C504B01021400140006080800CC70623BD486FD9CA0000000F40000001300000000000000000000000000B20000005B
310
436F6E74656E745F54797065735D2E786D6C504B01021400140006080800CC70623B853B8169EB0000007C010000080000000000000000000000000083010000636F72652E786D6C504B01021400140006080800CC70623B55019EA25F0000007C000000070000000000000000000000000094020000636E782E786D6C504B
310
01021400140006080800CC70623BDBABAAF470010000D40300000C00000000000000000000000000180300006662782F636F72652E786D6C504B01021400140006080800CC70623B9C113CC27E0000009D0000000B00000000000000000000000000B20400006662782F636E782E786D6C504B01021400140006080800CC70
310
623B7DF2F77C2A010000120200003100000000000000000000000000590500006662782F41393633353835312D344632462D344230382D423046372D3739314545314133324237412F636F72652E786D6C504B01021400140006080800CC70623BAD7543B64E010000330300003000000000000000000000000000D2060000
310
6662782F41393633353835312D344632462D344230382D423046372D3739314545314133324237412F636E782E786D6C504B01021400140006080800CC70623BE75B7789680500003C10000034000000000000000000000000006E0800006662782F41393633353835312D344632462D344230382D423046372D3739314545
310
314133324237412F6F626A656374732E786D6C504B01021400140006080000CC70623B0000000000000000000000003500000000000000000000000000280E00006662782F41393633353835312D344632462D344230382D423046372D3739314545314133324237412F76657274696365732E62696E504B01021400140006
310
080800CC70623BF270F133060000000400000036000000000000000000000000007B0E00006662782F41393633353835312D344632462D344230382D423046372D3739314545314133324237412F747269616E676C65732E62696E504B01021400140006080000CC70623B0000000000000000000000003700000000000000
310
000000000000D50E00006662782F41393633353835312D344632462D344230382D423046372D3739314545314133324237412F617474726962757465732E62696E504B01021400140006080800CC70623B08DA0BD1900000004101000036000000000000000000000000002A0F00006662782F41393633353835312D344632
310
462D344230382D423046372D3739314545314133324237412F6469726563746F72792E786D6C504B01021400140006080800CC70623BEDD1DC58FD000000A00100003B000000000000000000000000000E1000006662782F41393633353835312D344632462D344230382D423046372D3739314545314133324237412F7265
310
736F75726365732F636F72652E786D6C504B0506000000000E000E0080040000641100000000
  0
XRECORD
  5
3A
102
{ACAD_REACTORS
330
39
102
}
330
39
100
AcDbXrecord
280
     1
 70
     1
 90
429727718
  1
30362254-06B7-45E0-A893-8CFA70E3D6BC
310
504B03040A0000080000CC70623B3DEE336E79000000790000001B0000006175746F6465736B2D64657369676E2D7061636B6167652E786D6C3C3F786D6C2076657273696F6E3D22312E302220656E636F64696E673D227574662D3822203F3E3C666F726D6174733E3C666F726D61743E687474703A2F2F736368656D612E
310
6175746F6465736B2E636F6D2F64657369676E2D7061636B6167652F323030393C2F666F726D61743E3C2F666F726D6174733E504B0304140006080800CC70623BD486FD9CA0000000F4000000130000005B436F6E74656E745F54797065735D2E786D6C7D8EC10E82300C865F65E91D8A1E8C310C0EEA1BF002731658846E
310
D98AC1B77784ABF1D8FE5FBFBF75BBCE937A534CCEB38643598122B6FEE978D0B0485F9C41B54DDD7D022595594E1A469170414C76A4D9A4D207E29CF43ECE46F218070CC6BECC4078ACAA135ACF422C856C0E68EA1BF5669944DDD7BCDE7B1F8E415D77AECB980613C2E4AC91FC167A2B244592486606FC29C8FD7F045B9A
310
EF7053A7E60B504B0304140006080800CC70623B1EC5D7A3EB0000007C01000008000000636F72652E786D6C8D90416EC3201045AF82665B6103C6756C6122AB4D4ED00B204C5C94182C03558F5F9C3852BBEB6A467FFE9B197D71FC9E6FE8CBACC17AD7032D0820E3B41FAD9B7A48F1820F808E52ACDEC75F36404ECDA687
310
4D0629A6D5A76597B477D1B89855E747B38B2A041301E95B6E7A08FAD3CCAA50296647B8168BD2573599823EBB0CA76447F43862C7BCCF5EAC59410E4DDD9C7973C2755553CCCFA4C603E3040F1565ED3B1FDE4E432BCA0D9622DAF9795FAF464533826484B498524CD807E51D79ED187F21878E10516EF63F505AC67F42C9
310
BA58B1FDDD071640D2FCC87D2045B96591CB3DA85CB7DCE40F504B0304140006080800CC70623B55019EA25F0000007C00000007000000636E782E786D6C4DCB3B0E80201045D1AD90E915ED2CF8AC45050C11660C8261F98AB1B07AC9C97D42D718D865D3E909258CFD00CCE24AC6E326A164D74DC0B4128928FF32603847
310
2BA13128B1252AC747C6BAB984FC68F0B87FE8960A5C09FE86CFB69FBA01504B0304140006080800CC70623B8C9102E971010000D40300000C0000006662782F636F72652E786D6CC5535B6E833010BC8AE5DF0A6C08340F1947A84D4ED00B38C6A128602363A31CBFCB234A53A551FA553EC09AD9F5CE8C31DB9E9B1AF5CA
310
7695D1198E428A91D2D214952E33ECDD315861B4E5CC1AE3BE9561A445A3323CC098B3D21ADFCE9034DA29ED00D5A6503328BA4E398C640D8B0C77F253352214DE4145770A5B214FA2546114020D759C75CE8200340D19DE981F0F6746269C33EFAB6266AB02A655C74A59CCF365BADC27CB5D902ED22848F6340DF238A141
310
BE88E2F57B92BFEDF23523433367AE6A2EEAA455C2A902F398D2751045018D3FA264435F3771F242571B4A1919CA6F9A7C5B3CD9E42BED16F12C776AEB308F40C848FC700B1139D4891EF410CEC810227CC6846F8386402064270EF5C5C709A05E49676C024C61FC95EA45ED154CA5211D1FF4FB8291A913A68E9B83EBBB33
310
E2A7673CDE118E5AE8124C0807CB8377834E366998436B950D7A7746DAD846D4CFD978E0F04FD455FC5D49D2D4C6FE9722321F10997F0F32DC47FE05504B0304140006080800CC70623BFFEA85907E0000009D0000000B0000006662782F636E782E786D6C4DCCD10A83201886E15B91FFDC95D95A811AB6F23E625948A6C3
310
E9D8E5AF46073BFAE0E1E365ED67B3E8ADC3CB78C7815C7240DA3DFC64DCC221C519D7805AC182F7F1EF06C88D9BE6703008B6049F9E274D7A1E938DBB5AE3D6131B2589BA0D3D965551E0B2EA732C9B9A624AAEB41E3A557677029960D9AFB4EF11165F504B0304140006080800CC70623B4FEEA4082C0100001202000031
310
0000006662782F39464131463745442D413632322D343644302D413938332D3331353338454246344243312F636F72652E786D6C8D515B6EC32010BC0AE2AB55850DD871ED0813254D72825EC00192A2C460F1A872FC42ED48ED5F7E00CDCECCCEB26C731F6FE05B39AFADE921293004CA082BB5B9F43086336A21D870E6AC
310
0D7F68109861543DCC30E4ECE26C9C164858139409093556AA051CBC570102714B8F1E7AF1A5C6A11862480C7F2DA6415C878B2A4891CA89C7990F2E050073937C42DE1DB7E4F87ED8A36D4329AA9B3D46DBAEAD504556557BD81DEBDD0761E52CE42C462D17B996298E3E6BE59E35C962CE821E1FF18553435012728A7187
310
0841987E927A8D9B35ADDF70BBC6989599FE4F1427F9A4286A132ABAC49D651EF234CD5CE04CDA78BA3DC2A8FB645D00B9DF8B57E215725C60BCA2A463E54C4CE327C7A65E1C7DB02E7DEFCBF594B864C5CA6CDBD49C957943E9FA5D5FBAF336F90F504B0304140006080800CC70623BAD7543B64E01000033030000300000
310
006662782F39464131463745442D413632322D343644302D413938332D3331353338454246344243312F636E782E786D6CD593CD6EC32010845F0571AD6CE3D48AD20813A9873E410FBD12D82434182C7EAAE6EDBB2424CD25871E7B41D6EC30B3FA84F9E67BB2E40B4234DE8DB46F1925E094D7C6ED479AD3AE5951B2113C
310
789FEE6C943839C1488B4C05DF079FE72A69D8C96C13AAD6B8631503449F83828872B949AC57D26200B826A308D316B4064D6E46FCDA41C05550DC9E483A00797BFD207EFB092A45DE9514C1BBD22178396BD39D891265658C238DEA00936C654E5E433CB65A26D9F6EDB5EBC14EBF49A45CB856E66048291F6939A9A81BB5
310
C8917738143CA680F4AA299D66A042CEB3354A2684DC9D8D178FE0D9B8B41CAAD720F880EE7EF93C0C18769E099ECC04D5A102C8049A8A05632F4DDF376CF1DE0F6BB65C2F8627B65A33C6BB62177CEBBDAD973006829F89F22E814B54F4BC2BE347F8AA8F681390B50FA73F804400B5F542E796F19FF974E7F78DB802FE05
310
E207504B0304140006080800CC70623B16AB87BA640500003C100000340000006662782F39464131463745442D413632322D343644302D413938332D3331353338454246344243312F6F626A656374732E786D6CAD575B6FA33818FD2B887DE6924B3BED8A326A92B68A663B534DD4D13E548A0C38942D60649B369D5FBFC7
310
600890A493BDE42160637FD7F31D7FF63E6FB3D478A55C242CBF3247B66B1A340F5994E4F19559CA8D75611A9F7D8F33263BCB4C232719BD32D5B4E97B316765A1A722BA21652A07B3B7B33F0D11D29C9A46981221AE4C113ED38CD8A4942CA2E2C58E882476BCD9DA23BB5ED8171B73523C0F841684D35CC252CCE79062D4
310
468DFA43D7747CCF51DF7D4FFDEB5593E3AB9CCA9FBEFE241792E4E19EB28198C968BAB8199F5D5A67D3E9C49A9E8F47D6EC76B6B0469F26EEFC7C3EBFBCBEB98462213924694B38DD98FE1D62C393D073EA4FADC5DAF04326852CCF6958F90F0F2B9BB5C48816348F90C7840A68EB78EDF68723159BCEE7891A6B95DDE9D3
310
BCEAEEE8086A6C6F9E5D4B59F0175C10A7A0820BAA5055C7473B5AE3CFDD452D602CD5DF12616444529E90D448938013FE6EFA58AA96F85E4F8C42275708571E98FE6827AF6B2B4AE3D7D83D64E5A64C53054DD3AF90BD06FEA9149565C94FCA0F6B834DC85599E4F2423B24DF0B6AFA979E534DFA9E7A4CC6FA631D486393
310
921829879BF5D781A373557BCB85E97FB90DB62B558F8795179C15944B051F40AB495CF35451D26A4727654E6D8033BD98EF82F21D91FF8AF2DD9982BCF1643BDD4EB516C9492E368C67C88DED563FC36D5EACF66DFF057C3658BDBFA69DF9578B3DA735B64F18C7F20770A9D45CFCF7FCF563D6456A277DBEF78A02637CA2
310
43B90A490AEAB94F72244481D24819A6C0E59B606BFA4B3025981DBB48EAB701D97BF19C577CC77F2D1B6C55A9EF3C732474C0B727303F625995056C3B02963D9EAC146BE78EC5FCEC7FA999EBC5EACBAAE41B12D27B4D2C0BBA49F244E2ECDC81B76B502F113D8F5EE8FB1BE3111CDD4FC2AA9B844CAB1288B68AB90A7CDC
310
1C166AB0D3DC5310625FCC14E779BFD0709F8890A629C9292B1B2DED31A4B0DA928CEE135085754027E3018A397D4D5427D15BD1330B677DC8934285AC3DF45A9EB68FF8F2B8FC0A509AFEECFD0FF2DE25CC6047F7214B195F07EFEB9A094D800F7BFAE8FED187B78EA8A3A400F115961BCAD1215E47C966530AF0EE8128FE
310
58CEBB996A8964FFA529A046635D9353B0336A8F700DDF46271A024E70B0B37C9DE01847591E54DED53D54202AB947E4076556AC49C6CA5C9E1226B7F1A7B1BE15DEED62C41B91E1B3E9AFAAA735036547343A925075041DF0A9979E893B391F8FCFA6967B3EFB644DCF6E5CEBFAE272625DCC6FAF3FB93793C5F90CE1EF57
310
407342756B10D1C489E8953CD1617E5CEECAD6F4EF8914CE5D5D504E5C3F1F9736DA62CFC11E00BCDDB8CC8A9466349744C1F75EBDA4DF09BA8A9E8C7A7E9991989E20E5DBDD6A6003664ED8F7A04A8DBE0DF6EAD9B9AA858342E47399053949D2C146EDB85DE4B176BB0965FBAC19BD19AA918E27FA50C1D22402E144464C
310
59462568E704B6E71915404CB72B8FF4EDE184DDAF753F284990D2C6926782963815403548A70C657FDEF80D2D9CEAA2AE4C1C76F60BFE74219A06527D6582DF6412526107381E55E353090704D085B52408D0933C4ED159D79BDA71BB4BC506F4831350EB6F979CD22D69BF7AC49B91A2C0A9DDA3D5CA36AD20FC478E37E6
310
1844E2352865EBCB6EA275A652E3836BE04EFB400BF1A2556F515F1FBB35B2AB35BD889C744FFA1004B5544B121E57F70215746DD2F5E2C1412B602CBF19455AC6C8E5E9922C4E01E65215385004546899059180EAFCF7A707CE7017CD8CDB0410789AB32C63B91E5CEBBBACB17AC6CD347A022D5075FD106377347AAABA7E
310
7D11590744509B44E205134DC1290F06580320F78E537D3D73540E06CB970B431F185308AD40BBD794D6D77003C5A36E8EAA54BA64597CD8F83BD552A080A365F7FF06504B0304140006080000CC70623B000000000000000000000000350000006662782F39464131463745442D413632322D343644302D413938332D3331
310
353338454246344243312F76657274696365732E62696E504B0304140006080800CC70623BF270F1330600000004000000360000006662782F39464131463745442D413632322D343644302D413938332D3331353338454246344243312F747269616E676C65732E62696E636660600000504B0304140006080000CC70623B
310
000000000000000000000000370000006662782F39464131463745442D413632322D343644302D413938332D3331353338454246344243312F617474726962757465732E62696E504B0304140006080800CC70623B08DA0BD19000000041010000360000006662782F39464131463745442D413632322D343644302D413938
310
332D3331353338454246344243312F6469726563746F72792E786D6C858F410AC3201045AF22B36F53E9A60B35CBEEBAE80D244E44489C6234F4F835464A48035D0DF398FF9F8AF63D0E6CC63039F212F8F9020C7D47C6792B21C5FE7403D62A1188E2E60C98D7234A5830286103A55745067B9D86B8A3CF9C7F90C11DE607
310
FB144396D7B6A82D282E9A152AD114D5EF2CB866EEE831B8EEA07A7BB5A8D7D61A2BAAEB7FD5F70921FF497D00504B0304140006080800CC70623B0D6EF93BFE000000A00100003B0000006662782F39464131463745442D413632322D343644302D413938332D3331353338454246344243312F7265736F75726365732F63
310
6F72652E786D6C8D50596E833010BD0A9ADFCA60B334011947A8694ED00B586642AC041B79A97AFC9A40A5F6AF3F33A3B7689E1E3F7DCD8FEC139DD7D6F4C0720A191A65476DA61E62B892236427C19DB5E1970C322367EC618541F0C9D9B8EC90B226A009093576C41D94DE63804C3DD2D18357379C652E63480A7FCF17A9
310
EE72C29CE5894E3AC17D702940B63D59270887DE46A7D0F36263058F518FBB468FE9A7BE6A7420864373B8D4873369AA8691FA421B3294352543C5CAF65C0F6FEF43CB8BD52C78D0F34F46E550061C419494B6843142CB0F5677F4B52BEB177AEC28E5C52AFF638ACBF84F53D42654E51E77B379102C05791282176B5F693D
310
CB4C7BED567C03504B010214000A0000080000CC70623B3DEE336E79000000790000001B00000000000000000000000000000000006175746F6465736B2D64657369676E2D7061636B6167652E786D6C504B01021400140006080800CC70623BD486FD9CA0000000F40000001300000000000000000000000000B20000005B
310
436F6E74656E745F54797065735D2E786D6C504B01021400140006080800CC70623B1EC5D7A3EB0000007C010000080000000000000000000000000083010000636F72652E786D6C504B01021400140006080800CC70623B55019EA25F0000007C000000070000000000000000000000000094020000636E782E786D6C504B
310
01021400140006080800CC70623B8C9102E971010000D40300000C00000000000000000000000000180300006662782F636F72652E786D6C504B01021400140006080800CC70623BFFEA85907E0000009D0000000B00000000000000000000000000B30400006662782F636E782E786D6C504B01021400140006080800CC70
310
623B4FEEA4082C0100001202000031000000000000000000000000005A0500006662782F39464131463745442D413632322D343644302D413938332D3331353338454246344243312F636F72652E786D6C504B01021400140006080800CC70623BAD7543B64E010000330300003000000000000000000000000000D5060000
310
6662782F39464131463745442D413632322D343644302D413938332D3331353338454246344243312F636E782E786D6C504B01021400140006080800CC70623B16AB87BA640500003C1000003400000000000000000000000000710800006662782F39464131463745442D413632322D343644302D413938332D3331353338
310
454246344243312F6F626A656374732E786D6C504B01021400140006080000CC70623B0000000000000000000000003500000000000000000000000000270E00006662782F39464131463745442D413632322D343644302D413938332D3331353338454246344243312F76657274696365732E62696E504B01021400140006
310
080800CC70623BF270F133060000000400000036000000000000000000000000007A0E00006662782F39464131463745442D413632322D343644302D413938332D3331353338454246344243312F747269616E676C65732E62696E504B01021400140006080000CC70623B0000000000000000000000003700000000000000
310
000000000000D40E00006662782F39464131463745442D413632322D343644302D413938332D3331353338454246344243312F617474726962757465732E62696E504B01021400140006080800CC70623B08DA0BD190000000410100003600000000000000000000000000290F00006662782F39464131463745442D413632
310
322D343644302D413938332D3331353338454246344243312F6469726563746F72792E786D6C504B01021400140006080800CC70623B0D6EF93BFE000000A00100003B000000000000000000000000000D1000006662782F39464131463745442D413632322D343644302D413938332D3331353338454246344243312F7265
310
736F75726365732F636F72652E786D6C504B0506000000000E000E0080040000641100000000
  0
XRECORD
  5
D
102
{ACAD_REACTORS
330
C
102
}
330
C
100
AcDbXrecord
280
     1
270
     1
271
     1
  0
XRECORD
  5
E
102
{ACAD_REACTORS
330
C
102
}
330
C
100
AcDbXrecord
280
     1
270
     1
271
     1
  0
XRECORD
  5
F
102
{ACAD_REACTORS
330
C
102
}
330
C
100
AcDbXrecord
280
     1
 70
     0
 90
1673772943
  1
ECE7A1D2-D628-4531-984C-D00F80459256
310
504B03040A0000080000CC70623B3DEE336E79000000790000001B0000006175746F6465736B2D64657369676E2D7061636B6167652E786D6C3C3F786D6C2076657273696F6E3D22312E302220656E636F64696E673D227574662D3822203F3E3C666F726D6174733E3C666F726D61743E687474703A2F2F736368656D612E
310
6175746F6465736B2E636F6D2F64657369676E2D7061636B6167652F323030393C2F666F726D61743E3C2F666F726D6174733E504B0304140006080800CC70623BD486FD9CA0000000F4000000130000005B436F6E74656E745F54797065735D2E786D6C7D8EC10E82300C865F65E91D8A1E8C310C0EEA1BF002731658846E
310
D98AC1B77784ABF1D8FE5FBFBF75BBCE937A534CCEB38643598122B6FEE978D0B0485F9C41B54DDD7D022595594E1A469170414C76A4D9A4D207E29CF43ECE46F218070CC6BECC4078ACAA135ACF422C856C0E68EA1BF5669944DDD7BCDE7B1F8E415D77AECB980613C2E4AC91FC167A2B244592486606FC29C8FD7F045B9A
310
EF7053A7E60B504B0304140006080800CC70623BD9DDAED0EC0000007C01000008000000636F72652E786D6C8D90416EC3201045AF82665B61836D9CD8C2444DD39CA01740405C94182C03558F5F9C3852BBEB6A467FFE9B197D7EF89E6EE8CB2CC17A37002D0820E394D7D68D03A478C17B4007C117EFE32F1B20272733C0
310
2A83E0E3E2D3BC49CABB685CCCAAF3DA6CA20CC14440EA969B0182FA34932C648AD911AEC52CD5558EA6A0CF2EC329598D1E47ACCEFBECC59A050463A7EA5833865FEBDD0E37353BE3EE8DBDE3F6786A48D375FBF6CC78B9C282473B3DEFABC5C86834888A900E538A49F5419B9EB47DD5BC907D4F082F57FB1F28CDFA9F50
310
B22ED6D5F6EE030B20687EE43E10BC5CB3C8E51E54AE6B6EE207504B0304140006080800CC70623B55019EA25F0000007C00000007000000636E782E786D6C4DCB3B0E80201045D1AD90E915ED2CF8AC45050C11660C8261F98AB1B07AC9C97D42D718D865D3E909258CFD00CCE24AC6E326A164D74DC0B4128928FF326038
310
472BA13128B1252AC747C6BAB984FC68F0B87FE8960A5C09FE86CFB69FBA01504B0304140006080800CC70623BA24EB22D72010000D40300000C0000006662782F636F72652E786D6CC5535B6E833010BC8AE5DF0A6C5E49888CA3A6694ED00B38E05014B091B1518EDFE511A5A9D228FD2A1F60CDEC7A67C6986DCE4D8D7A
310
69BA4AAB0C073EC548AA5C17952A33ECECD15B61B4E1CC686DBF9561A44423333CC098B3D268D7CE50AE9595CA02AA74216750749DB418E5352C32DCE59FB211BE70162ABA93DF8AFC244AE9073ED050C759670D0840D390E18DF9F1706664C23973AE2A66B62A605A75ACA4C13C4976E1364A12EF355A2EBD384AF65EFA96
310
BC7B8BED2EA6719AAE16FB8491A199335B351775B991C2CA02F390D2D40B028F861F41BCA68B7518BFD0D59A524686F29B26D7164F36B94AD9289CE54E6D1DE6010819891F6E21228B3AD1831EC219194284CF98F06DD01008846CC5A1BEF83801D4CBDC6A1303536877A57A513B0953A94FC707FDBE6064EA84A9E3E6E0FA
310
EE8CF0E9198F7784A316AA0413C2C2F2E0ECA0934D1AE6D05A69BCDE9E91D2A611F573361E38FC1375157F5752AE6B6DFE4B11990F88CCBF0719EE23FF02504B0304140006080800CC70623B408A7D3B7C0000009D0000000B0000006662782F636E782E786D6C4DCCD10A83201886E15B91FFDC552A92A0064DBC8F581632
310
D3703A76F9ABD1C18E3E78F878E5F0D9027ABBFCF2292AE86E2D20171F69F6715550CB827B40839639A5F2770314A7CD293819B45C73AAFB45B35BA61ACAA1C1C7E7855C58C15BC331339661262CC762340413D68D77DA5B42298546CBE6573AF60CEB2F504B0304140006080800CC70623B449FB9BD290100001202000031
310
0000006662782F36394639363044362D344446342D343946362D394244322D3234314243333846323333332F636F72652E786D6C8D515B6EC32010BC0AE22B55850D98B871848994463E412FE002495162B07854397EA176A4F62F3F2C9A9D991D587EB84F37F0AD7D30CEF6905418026DA553C65E7A98E219ED203808EE9D
310
8B7F6810D871D23D2C3014FCE25D9A57483A1BB58D19B54EE9151C43D0110279CB971E06F9A5A7B11A53CC8C70ADE6515EC78BAE4895DB992778883E0700CB907242D17643D7E2538BD869608875438BBAE38922CAC8F1BDD90DB4691A5E2F42C153326A951B95E398B3D1FE599322163C9AE9115F7A3D46ADA0A018778810
310
84E907617BDCEE297BC5BB3DC6BC2EF47FA234AB2745C9D8D8D035EE220B50105E2F0DC1954B9FB747187D9F9D8FA0CCDB042D5FA0C015C65B42DF78BD10F3F3B363CB56C7109DCFDFBBB97E662ED92EB62D13BC2E1BCAE5777DB9966D8A1F504B0304140006080800CC70623BAD7543B64E01000033030000300000006662
310
782F36394639363044362D344446342D343946362D394244322D3234314243333846323333332F636E782E786D6CD593CD6EC32010845F0571AD6CE3D48AD20813A9873E410FBD12D82434182C7EAAE6EDBB2424CD25871E7B41D6EC30B3FA84F9E67BB2E40B4234DE8DB46F1925E094D7C6ED479AD3AE5951B2113C789FEE
310
6C943839C1488B4C05DF079FE72A69D8C96C13AAD6B8631503449F83828872B949AC57D26200B826A308D316B4064D6E46FCDA41C05550DC9E483A00797BFD207EFB092A45DE9514C1BBD22178396BD39D891265658C238DEA00936C654E5E433CB65A26D9F6EDB5EBC14EBF49A45CB856E66048291F6939A9A81BB5C89177
310
38143CA680F4AA299D66A042CEB3354A2684DC9D8D178FE0D9B8B41CAAD720F880EE7EF93C0C18769E099ECC04D5A102C8049A8A05632F4DDF376CF1DE0F6BB65C2F8627B65A33C6BB62177CEBBDAD973006829F89F22E814B54F4BC2BE347F8AA8F681390B50FA73F804400B5F542E796F19FF974E7F78DB802FE05E20750
310
4B0304140006080800CC70623B8D05915C650500003B100000340000006662782F36394639363044362D344446342D343946362D394244322D3234314243333846323333332F6F626A656374732E786D6CAD575B6FA33814FE2B887D06429276DA1565D4266D158D3A339A6846FB502932E050B66023DB74D2FDF5FB190C01
310
9276B2973C046C8ECFF53B17071F77456EBD502133CEAE6CDF9DD81665314F32965ED995DA3A17B6F5310C04E7AA47665B8C14F4CAD6DB7618A48257A5D94AE89654B91AEDDEDDFC61C998326A5B714EA4BCB265FC440BE2924AF184CA6737218AB8E976E7FA6E4338649B0A523E8D98964450A6A029F619B8588D52FE7039
310
B1BD30F0F4F730D0FF866AF6369557DB33949F31A9088B0F848DD8CCFCF9F2767A76E99CCDE733677E3EF59D9BBB9BA5E37F984D16E78BC5E5F5ED25044B25C0C96822E8D60EEFE11B91C581D77CEA34368A1F5329E68CD1B8B61F16D63A1B8E092D294B10C78C4A48EB593D192E7DED9BDEE7995E1B91FDEDD3ACEA9FE831
310
6A756F9F7D4D79F4274C90A7A04248AA51D5F8C718DAE06FB2F75AC4796EBE65D22A88A22223B995679120E2D50E41AA49C260C046A35368846B0BECD0DFF3EBEB8AD4F835768F69B9ADF25C43D30E6B646F807FAA64AD59F61715C7A54127C4AACA98BA3006A9D792DAE165E0D59B61A01FB3A9F9D838D2DAE62445C86166
310
F37564E842E7DE6A69879FEEA2DD5AE7E371E1A5E025154AC307D06A03D73EB5978C58FFA4C8E9033066E0F3BD53BEC1F39F91BE7B55103791EDE6BBB991A2046172CB4581D8B893FA674DDA17A77B3B7C413D1B511FD2743BFF8A38F03A658705E3ADF8015C3A3417FF3D7E439FF591DA0B5F18BC20C1B8981957AE6392A3
310
F43C640C01D1A0B4728E2DD4F26DB4B3C3152A252A3B4E913CEC1C72F012782FF88EFF8637AA552DBEF76408E8A8DE9E50F9E1CB3A2DA0DB1B6039A893B56063DC5B3E3FFB5F72E67AB9FEB4AEC496C4F4C1149625DD662C53E89D7BF0F6151A046260D1337DFDC94502430F83B0EE07A130A224BCAD7DAE1D9FB6CD422FF6
310
920702629C4BB9AE79C12F243C6432A6794E18E5552BA56B431AAB5D91317302B2B071E86C3A42B1A02F999E24061403B5D0EB639195DA655DD3EBEAB4FB862DDF579F014AD0E73C22F99E28DA57FB98E75C6CA2D74D53086D600F4786E0FE3144B771A8A7B900F03594DB8A633CBC49B2EDB69228BB479CF863B5E807AAAB
310
23872F6DFEB4129B949CA33823F58830E86D65621E10047D9DB34D862E8EAC3C2ABC2F7B2C40D67CDFE01F5545B92105AF983AC54D93D69E56FB8E797F88913F898A9FEC705D3F9D1B54EC8426FB500D40A03BD0119B06E1B95DDC7EB8F6975367793EBD70E66733DFB9BC982F9CE564727731999F5D4ECFCE3B8D6A4DC2A0
310
6D50FD148437D110834A64C6CDDF57FBACB5C307A2A477DFE4939736CFEF2B175371E0E10CF0DD1D5C15654E0BCA14D1E87DD02FF93782A162C0A3D95F1524A52770F972BF1EE9809D13CE7DD599467F8ECE9ADD85CE85A34CD45355448C64F9E8A031DC2D596ACC6E5DD93D9B82DE2EF5CAF81363A8E47996A0DE24564A79
310
4115AACE09C55E14540231FDA13C319787134EBF34E3A022514E5B4D9E0826E25C02D5805B15ABE1BEF51B26383D445DD9E875EE33FE4C22DA16427D65A3BCA92CA6D28DD01DF5DC53330704308475351050232CCD31583787BA75774AFB06E5070DD0C8EF484E19968C5D83BA5B90B244D31E54D55A372320FE4786B7EA58
310
44E135AA5467CB7EA333A61683CC6A8C3257034C10CF46F40EF9F5BE59BE5BD30C3C72D235E95D10345C1D45445A5F0BB47E46A5EBE5570F9380B5FA629579952296A773720405982B9DE04011506178964401AA8BDF1FBF0A8EAB6861DD6580C0E38217056766716DAEB2D6FA0917D3E4116581EADB879C4E7CFFB11EFACD
310
3D641311495D92C8676CB409A72D18610D803CE8A626049E8EC1887CB5B44CC39883690DDA8399B4B9855B481E7D71D4A9D22F96E5BB73BF5793020C02137BF837504B0304140006080000CC70623B000000000000000000000000350000006662782F36394639363044362D344446342D343946362D394244322D32343142
310
43333846323333332F76657274696365732E62696E504B0304140006080800CC70623BF270F1330600000004000000360000006662782F36394639363044362D344446342D343946362D394244322D3234314243333846323333332F747269616E676C65732E62696E636660600000504B0304140006080000CC70623B0000
310
00000000000000000000370000006662782F36394639363044362D344446342D343946362D394244322D3234314243333846323333332F617474726962757465732E62696E504B0304140006080800CC70623B08DA0BD19000000041010000360000006662782F36394639363044362D344446342D343946362D394244322D
310
3234314243333846323333332F6469726563746F72792E786D6C858F410AC3201045AF22B36F53E9A60B35CBEEBAE80D244E44489C6234F4F835464A48035D0DF398FF9F8AF63D0E6CC63039F212F8F9020C7D47C6792B21C5FE7403D62A1188E2E60C98D7234A5830286103A55745067B9D86B8A3CF9C7F90C11DE607FB14
310
4396D7B6A82D282E9A152AD114D5EF2CB866EEE831B8EEA07A7BB5A8D7D61A2BAAEB7FD5F70921FF497D00504B0304140006080800CC70623BCA768048FE000000A00100003B0000006662782F36394639363044362D344446342D343946362D394244322D3234314243333846323333332F7265736F75726365732F636F72
310
652E786D6C8D50596E833010BD0A9ADFCA60D600328E9AA639412F609909B1126CE4A5EAF16B0295DABFFECC8CDEA2797AECF8353F924FB44E193D409E5248504B332A3D0D10FC95B4901C39B3C6F85F3248B49871801506CE266BC2B243D2688FDA47549B11775038871E12F988C7004EDE7016A9083E2ADC3D5D84BC8B09
310
D33C8D74D471E6BC8D0192EDC93A815B742658898E651BCB59086ADC356A8C3FD555A1055ED7E7E254D615792D0F075295F585746FF53B694EE78A565DD736979A65AB9933AFE69F8CD2A2F038022F28ED489E135A7CE4554F9BBEA85E68DB53CAB255FEC71496F19FA6A0B42F8B3DEE6673C0F318E4497096AD7DC5F52C33
310
EEB55BFE0D504B010214000A0000080000CC70623B3DEE336E79000000790000001B00000000000000000000000000000000006175746F6465736B2D64657369676E2D7061636B6167652E786D6C504B01021400140006080800CC70623BD486FD9CA0000000F40000001300000000000000000000000000B20000005B436F
310
6E74656E745F54797065735D2E786D6C504B01021400140006080800CC70623BD9DDAED0EC0000007C010000080000000000000000000000000083010000636F72652E786D6C504B01021400140006080800CC70623B55019EA25F0000007C000000070000000000000000000000000095020000636E782E786D6C504B0102
310
1400140006080800CC70623BA24EB22D72010000D40300000C00000000000000000000000000190300006662782F636F72652E786D6C504B01021400140006080800CC70623B408A7D3B7C0000009D0000000B00000000000000000000000000B50400006662782F636E782E786D6C504B01021400140006080800CC70623B
310
449FB9BD290100001202000031000000000000000000000000005A0500006662782F36394639363044362D344446342D343946362D394244322D3234314243333846323333332F636F72652E786D6C504B01021400140006080800CC70623BAD7543B64E010000330300003000000000000000000000000000D20600006662
310
782F36394639363044362D344446342D343946362D394244322D3234314243333846323333332F636E782E786D6C504B01021400140006080800CC70623B8D05915C650500003B10000034000000000000000000000000006E0800006662782F36394639363044362D344446342D343946362D394244322D32343142433338
310
46323333332F6F626A656374732E786D6C504B01021400140006080000CC70623B0000000000000000000000003500000000000000000000000000250E00006662782F36394639363044362D344446342D343946362D394244322D3234314243333846323333332F76657274696365732E62696E504B010214001400060808
310
00CC70623BF270F13306000000040000003600000000000000000000000000780E00006662782F36394639363044362D344446342D343946362D394244322D3234314243333846323333332F747269616E676C65732E62696E504B01021400140006080000CC70623B00000000000000000000000037000000000000000000
310
00000000D20E00006662782F36394639363044362D344446342D343946362D394244322D3234314243333846323333332F617474726962757465732E62696E504B01021400140006080800CC70623B08DA0BD190000000410100003600000000000000000000000000270F00006662782F36394639363044362D344446342D
310
343946362D394244322D3234314243333846323333332F6469726563746F72792E786D6C504B01021400140006080800CC70623BCA768048FE000000A00100003B000000000000000000000000000B1000006662782F36394639363044362D344446342D343946362D394244322D3234314243333846323333332F7265736F
310
75726365732F636F72652E786D6C504B0506000000000E000E0080040000621100000000
  0
XRECORD
  5
10
102
{ACAD_REACTORS
330
C
102
}
330
C
100
AcDbXrecord
280
     1
270
     1
271
     1
  0
XRECORD
  5
11
102
{ACAD_REACTORS
330
C
102
}
330
C
100
AcDbXrecord
280
     1
270
     1
271
     1
  0
CELLSTYLEMAP
  5
16F
102
{ACAD_REACTORS
330
4F
102
}
330
4F
100
AcDbCellStyleMap
 90
        3
300
CELLSTYLE
  1
TABLEFORMAT_BEGIN
 90
        5
170
     1
 91
        0
 92
    32768
 62
   257
 93
        1
300
CONTENTFORMAT
  1
CONTENTFORMAT_BEGIN
 90
        0
 91
        0
 92
      512
 93
        0
300

 40
0.0
140
1.0
 94
        5
 62
     0
340
21
144
6.0
309
CONTENTFORMAT_END
171
     1
301
MARGIN
  1
CELLMARGIN_BEGIN
 40
1.5
 40
1.5
 40
1.5
 40
1.5
 40
4.5
 40
4.5
309
CELLMARGIN_END
 94
        6
 95
        1
302
GRIDFORMAT
  1
GRIDFORMAT_BEGIN
 90
        0
 91
        1
 62
     0
 92
       -2
340
24
 93
        0
 40
1.125
309
GRIDFORMAT_END
 95
        2
302
GRIDFORMAT
  1
GRIDFORMAT_BEGIN
 90
        0
 91
        1
 62
     0
 92
       -2
340
24
 93
        0
 40
1.125
309
GRIDFORMAT_END
 95
        4
302
GRIDFORMAT
  1
GRIDFORMAT_BEGIN
 90
        0
 91
        1
 62
     0
 92
       -2
340
24
 93
        0
 40
1.125
309
GRIDFORMAT_END
 95
        8
302
GRIDFORMAT
  1
GRIDFORMAT_BEGIN
 90
        0
 91
        1
 62
     0
 92
       -2
340
24
 93
        0
 40
1.125
309
GRIDFORMAT_END
 95
       16
302
GRIDFORMAT
  1
GRIDFORMAT_BEGIN
 90
        0
 91
        1
 62
     0
 92
       -2
340
24
 93
        0
 40
1.125
309
GRIDFORMAT_END
 95
       32
302
GRIDFORMAT
  1
GRIDFORMAT_BEGIN
 90
        0
 91
        1
 62
     0
 92
       -2
340
24
 93
        0
 40
1.125
309
GRIDFORMAT_END
309
TABLEFORMAT_END
  1
CELLSTYLE_BEGIN
 90
        1
 91
        1
300
_TITLE
309
CELLSTYLE_END
300
CELLSTYLE
  1
TABLEFORMAT_BEGIN
 90
        5
170
     1
 91
        0
 92
        0
 62
   257
 93
        1
300
CONTENTFORMAT
  1
CONTENTFORMAT_BEGIN
 90
        0
 91
        0
 92
      512
 93
        0
300

 40
0.0
140
1.0
 94
        5
 62
     0
340
21
144
4.5
309
CONTENTFORMAT_END
171
     1
301
MARGIN
  1
CELLMARGIN_BEGIN
 40
1.5
 40
1.5
 40
1.5
 40
1.5
 40
4.5
 40
4.5
309
CELLMARGIN_END
 94
        6
 95
        1
302
GRIDFORMAT
  1
GRIDFORMAT_BEGIN
 90
        0
 91
        1
 62
     0
 92
       -2
340
24
 93
        0
 40
1.125
309
GRIDFORMAT_END
 95
        2
302
GRIDFORMAT
  1
GRIDFORMAT_BEGIN
 90
        0
 91
        1
 62
     0
 92
       -2
340
24
 93
        0
 40
1.125
309
GRIDFORMAT_END
 95
        4
302
GRIDFORMAT
  1
GRIDFORMAT_BEGIN
 90
        0
 91
        1
 62
     0
 92
       -2
340
24
 93
        0
 40
1.125
309
GRIDFORMAT_END
 95
        8
302
GRIDFORMAT
  1
GRIDFORMAT_BEGIN
 90
        0
 91
        1
 62
     0
 92
       -2
340
24
 93
        0
 40
1.125
309
GRIDFORMAT_END
 95
       16
302
GRIDFORMAT
  1
GRIDFORMAT_BEGIN
 90
        0
 91
        1
 62
     0
 92
       -2
340
24
 93
        0
 40
1.125
309
GRIDFORMAT_END
 95
       32
302
GRIDFORMAT
  1
GRIDFORMAT_BEGIN
 90
        0
 91
        1
 62
     0
 92
       -2
340
24
 93
        0
 40
1.125
309
GRIDFORMAT_END
309
TABLEFORMAT_END
  1
CELLSTYLE_BEGIN
 90
        2
 91
        1
300
_HEADER
309
CELLSTYLE_END
300
CELLSTYLE
  1
TABLEFORMAT_BEGIN
 90
        5
170
     1
 91
        0
 92
        0
 62
   257
 93
        1
300
CONTENTFORMAT
  1
CONTENTFORMAT_BEGIN
 90
        0
 91
        0
 92
      512
 93
        0
300

 40
0.0
140
1.0
 94
        2
 62
     0
340
21
144
4.5
309
CONTENTFORMAT_END
171
     1
301
MARGIN
  1
CELLMARGIN_BEGIN
 40
1.5
 40
1.5
 40
1.5
 40
1.5
 40
4.5
 40
4.5
309
CELLMARGIN_END
 94
        6
 95
        1
302
GRIDFORMAT
  1
GRIDFORMAT_BEGIN
 90
        0
 91
        1
 62
     0
 92
       -2
340
24
 93
        0
 40
1.125
309
GRIDFORMAT_END
 95
        2
302
GRIDFORMAT
  1
GRIDFORMAT_BEGIN
 90
        0
 91
        1
 62
     0
 92
       -2
340
24
 93
        0
 40
1.125
309
GRIDFORMAT_END
 95
        4
302
GRIDFORMAT
  1
GRIDFORMAT_BEGIN
 90
        0
 91
        1
 62
     0
 92
       -2
340
24
 93
        0
 40
1.125
309
GRIDFORMAT_END
 95
        8
302
GRIDFORMAT
  1
GRIDFORMAT_BEGIN
 90
        0
 91
        1
 62
     0
 92
       -2
340
24
 93
        0
 40
1.125
309
GRIDFORMAT_END
 95
       16
302
GRIDFORMAT
  1
GRIDFORMAT_BEGIN
 90
        0
 91
        1
 62
     0
 92
       -2
340
24
 93
        0
 40
1.125
309
GRIDFORMAT_END
 95
       32
302
GRIDFORMAT
  1
GRIDFORMAT_BEGIN
 90
        0
 91
        1
 62
     0
 92
       -2
340
24
 93
        0
 40
1.125
309
GRIDFORMAT_END
309
TABLEFORMAT_END
  1
CELLSTYLE_BEGIN
 90
        3
 91
        2
300
_DATA
309
CELLSTYLE_END
  0
ENDSEC
  0
SECTION
  2
ACDSDATA
 70
     2
 71
     8
  0
ACDSSCHEMA
 90
        0
  1
AcDb_Thumbnail_Schema
  2
AcDbDs::ID
280
    10
 91
        8
  2
Thumbnail_Data
280
    15
 91
        0
101
ACDSRECORD
 95
        0
 90
        1
  2
AcDbDs::TreatedAsObjectData
280
     1
291
     1
101
ACDSRECORD
 95
        0
 90
        2
  2
AcDbDs::Legacy
280
     1
291
     1
101
ACDSRECORD
  1
AcDbDs::ID
 90
        3
  2
AcDs:Indexable
280
     1
291
     1
101
ACDSRECORD
  1
AcDbDs::ID
 90
        4
  2
AcDbDs::HandleAttribute
280
     7
282
     1
  0
ACDSSCHEMA
 90
        1
  1
AcDbDs::TreatedAsObjectDataSchema
  2
AcDbDs::TreatedAsObjectData
280
     1
 91
        0
  0
ACDSSCHEMA
 90
        2
  1
AcDbDs::LegacySchema
  2
AcDbDs::Legacy
280
     1
 91
        0
  0
ACDSSCHEMA
 90
        3
  1
AcDbDs::IndexedPropertySchema
  2
AcDs:Indexable
280
     1
 91
        0
  0
ACDSSCHEMA
 90
        4
  1
AcDbDs::HandleAttributeSchema
  2
AcDbDs::HandleAttribute
280
     7
 91
        1
284
     1
  0
ACDSRECORD
 90
        0
  2
AcDbDs::ID
280
    10
320
15
  2
Thumbnail_Data
280
    15
 94
     1136
310
89504E470D0A1A0A0000000D49484452000001000000008B0803000000B9ACB7FB00000300504C5445000000FFFFFF0000000000000000000000000000000000000000000000000000000000330000660000990000CC0000FF0033000033330033660033990033CC0033FF0066000066330066660066990066CC0066FF0099
310
000099330099660099990099CC0099FF00CC0000CC3300CC6600CC9900CCCC00CCFF00FF0000FF3300FF6600FF9900FFCC00FFFF3300003300333300663300993300CC3300FF3333003333333333663333993333CC3333FF3366003366333366663366993366CC3366FF3399003399333399663399993399CC3399FF33CC00
310
33CC3333CC6633CC9933CCCC33CCFF33FF0033FF3333FF6633FF9933FFCC33FFFF6600006600336600666600996600CC6600FF6633006633336633666633996633CC6633FF6666006666336666666666996666CC6666FF6699006699336699666699996699CC6699FF66CC0066CC3366CC6666CC9966CCCC66CCFF66FF0066
310
FF3366FF6666FF9966FFCC66FFFF9900009900339900669900999900CC9900FF9933009933339933669933999933CC9933FF9966009966339966669966999966CC9966FF9999009999339999669999999999CC9999FF99CC0099CC3399CC6699CC9999CCCC99CCFF99FF0099FF3399FF6699FF9999FFCC99FFFFCC0000CC00
310
33CC0066CC0099CC00CCCC00FFCC3300CC3333CC3366CC3399CC33CCCC33FFCC6600CC6633CC6666CC6699CC66CCCC66FFCC9900CC9933CC9966CC9999CC99CCCC99FFCCCC00CCCC33CCCC66CCCC99CCCCCCCCCCFFCCFF00CCFF33CCFF66CCFF99CCFFCCCCFFFFFF0000FF0033FF0066FF0099FF00CCFF00FFFF3300FF3333
310
FF3366FF3399FF33CCFF33FFFF6600FF6633FF6666FF6699FF66CCFF66FFFF9900FF9933FF9966FF9999FF99CCFF99FFFFCC00FFCC33FFCC66FFCC99FFCCCCFFCCFFFFFF00FFFF33FFFF66FFFF99FFFFCCFFFFFF0000000D0D0D1A1A1A2828283535354343435050505D5D5D6B6B6B787878868686939393A1A1A1AEAEAEBB
310
BBBBC9C9C9D6D6D6E4E4E4F1F1F1FFFFFF0000000000000000000000000000000000000000000000000000000000003AE5ACE90000012B4944415478DAEDDA4B7283300C0050CED2334A4767DF69123E7120B49D4E17D27B8B6422563642B24DA60900000000000000000000FE47361E77B6BCD929E9F9C6F39F4D8B40169F
310
80188616F108468E95A2E40CDC861963600C6E53439312B87CCF7972817A85E0B0E2576F01321AB8A80CF9B466342DD06003BC45E6F563FD2AB8197E32D71DEB7B73D371BF2CFC5B97FA8FDC3D15190D33605E7FE549FBCFF293F0A659742A115FE79FB9B484DC1D0C3510BFB852A6054C797428346F2951F98EE77893DB37
310
C58E8FFCED7D485C058AB6BF7CCCC7B200BA77BDD8055AE4435E05E87E7850B814C65016A3CDDBA1FB58E3792594D341EDCB46991DC517C07B6D0F827EB0422A9C066BA58BA3CDD134EE90289C0A677F8669722406000000000000000000000000FC994FAC1A5201278BDB450000000049454E44AE426082
  0
ACDSRECORD
 90
        0
  2
AcDbDs::ID
280
    10
320
1C
  2
Thumbnail_Data
280
    15
 94
     1053
310
89504E470D0A1A0A0000000D49484452000000B40000010008030000002D3FACD700000300504C5445FFFFFFFFFFFFFFFFFF0000000000000000000000000000000000000000000000000000330000660000990000CC0000FF0033000033330033660033990033CC0033FF0066000066330066660066990066CC0066FF0099
310
000099330099660099990099CC0099FF00CC0000CC3300CC6600CC9900CCCC00CCFF00FF0000FF3300FF6600FF9900FFCC00FFFF3300003300333300663300993300CC3300FF3333003333333333663333993333CC3333FF3366003366333366663366993366CC3366FF3399003399333399663399993399CC3399FF33CC00
310
33CC3333CC6633CC9933CCCC33CCFF33FF0033FF3333FF6633FF9933FFCC33FFFF6600006600336600666600996600CC6600FF6633006633336633666633996633CC6633FF6666006666336666666666996666CC6666FF6699006699336699666699996699CC6699FF66CC0066CC3366CC6666CC9966CCCC66CCFF66FF0066
310
FF3366FF6666FF9966FFCC66FFFF9900009900339900669900999900CC9900FF9933009933339933669933999933CC9933FF9966009966339966669966999966CC9966FF9999009999339999669999999999CC9999FF99CC0099CC3399CC6699CC9999CCCC99CCFF99FF0099FF3399FF6699FF9999FFCC99FFFFCC0000CC00
310
33CC0066CC0099CC00CCCC00FFCC3300CC3333CC3366CC3399CC33CCCC33FFCC6600CC6633CC6666CC6699CC66CCCC66FFCC9900CC9933CC9966CC9999CC99CCCC99FFCCCC00CCCC33CCCC66CCCC99CCCCCCCCCCFFCCFF00CCFF33CCFF66CCFF99CCFFCCCCFFFFFF0000FF0033FF0066FF0099FF00CCFF00FFFF3300FF3333
310
FF3366FF3399FF33CCFF33FFFF6600FF6633FF6666FF6699FF66CCFF66FFFF9900FF9933FF9966FF9999FF99CCFF99FFFFCC00FFCC33FFCC66FFCC99FFCCCCFFCCFFFFFF00FFFF33FFFF66FFFF99FFFFCCFFFFFF0000000D0D0D1A1A1A2828283535354343435050505D5D5D6B6B6B787878868686939393A1A1A1AEAEAEBB
310
BBBBC9C9C9D6D6D6E4E4E4F1F1F1FFFFFF000000000000000000000000000000000000000000000000000000000000AD4AB4E4000000D84944415478DAEDCE310D00200003B0F997C93D116000014B5A054D07A567CF4B678FB4B4B4B4B4B4B4B4B4B4B4B4B4B4B4B4B4B4B4B4B4B4B4B4B4B4B4B4B4B4B4B4B4B4B4B4B4B4
310
B4B4B4B4B4B4B4B4B4B4B4B4B4B4B4B4B4B4B4B4B4B4B4B4B4B4B4B4B4B4B4B4B4B4B4B4B4B4B4B4B4B4B4B4B4B4B4B4B4B4B4B4B4B4B4B4B4B4B4B4B4B4B4B4B4B4B4B4B4B4B4B4B4B4B4B4B4B4B4B4B4B4B4B4B4B4B4B4B4B4B4B4B4B4B4B4B4B4B4B4B4B4B4B4B4B4B4B4B4B4B4B4B4B4B4B4B4B4B4B4B4B4B4B4B4B4B4
310
B4B4B4B4B4B4B4B4B4B4F437BD271D7401463350C91B1146640000000049454E44AE426082
  0
ENDSEC
  0
EOF
